» » »

Radiohead, Paranoid Android Tabs (ver.6)

Artists:  A B C D E F G H I J K L M N O P Q R S T U V W X Y Z # 

Paranoid Android Tabs (ver.6)

Radiohead Tabs
 Rating:
4/5 (4 votes)
Paranoid Android lessons Tabs too difficult? Try these video lessons and learn fast
                ----------------------------------------------------------------------------
		Paranoid Android
		      Radiohead
		OK Computer (1998)
----------------------------------------------------------------------------


This is a simple version of this song. It's for the newbies who wants to play
their favorite song! I didn't tab the entire song but it will come soon, so be
patient.
Enjoy!

Guitar 1		Thom Yorke with acoutic guitar
Guitar 2		Jonny Greenwood with electric guitar
Guitar 3		Ed O'Brien with electric guitar


b: Bend
br: Bend-Release
~: Vibrato


Verse 1:

Guitar 1
e-----------------------------------------------------|
B-------8-------------8-------------8-----------------|
G-----8---8---------8---8---------8---8---------------|
D-----------------------------------------------------|
A-------------------------------8----------0--0-------|
E--8----------8--6----------6-------------------6--6--|



Guitar 1
e-------------------------------------------------------------------|
B--------3---------------3------------3-3-3-3----3-3-3-3----3-3-3-3-|
G------3---3-----------3---3----------3-3-3-3----2-2-2-2----0-0-0-0-|
D-------------------------------------2-2-2-2----0-0-0-0----2-2-2-2-|
A-------------------------------------------------------------------|
E--3-----------3--1-------------------------------------------------|



Guitar 2
e-------------------------------------------------------------------| 
B-----------------------15----15-----15----15-------15-----------15-| 
G---------------------------15----15~---15----14~~---12---12--------|
D-------------------------------------------------------------------|
A-------------------------------------------------------------------|
E-------------------------------------------------------------------|



Guitar 1
e-------------------------------------------------------------------|
B--------3---------------3------------3-3-3-3----3-3-3-3----3-3-3-3-|
G------3---3-----------3---3----------3-3-3-3----2-2-2-2----0-0-0-0-|
D-------------------------------------2-2-2-2----0-0-0-0----2-2-2-2-|
A-------------------------------------------------------------------|
E--3-----------3--1-------------------------------------------------|



Guitar 2
e-------------------------------------------------------------------| 
B-----------------------------------3---3------3---3-------------3--| 
G--12~~~~~~~~~~~------------------3---3------3---2---2-----0--0-----| 
D-------------------------------------------------------------------| 
A-------------------------------------------------------------------| 
E-------------------------------------------------------------------| 



Guitar 1
e-----------------------------------------------------|
B-------8-------------8-------------8-----------------|
G-----8---8---------8---8---------8---8---------------|
D-----------------------------------------------------|
A-------------------------------8----------0--0-------|
E--8----------8--6----------6-------------------6--6--|



Guitar 2
e--------------------------------------------------------| 
B----4---------------------------------------------------| 
G--------------------------------------------------------| 
D--------------------------------------------------------| 
A--------------------------------------------------------| 
E--------------------------------------------------------| 



Guitar 1
e-------------------------------------------------------------------|
B--------3---------------3------------3-3-3-3----3-3-3-3----3-3-3-3-|
G------3---3-----------3---3----------3-3-3-3----2-2-2-2----0-0-0-0-|
D-------------------------------------2-2-2-2----0-0-0-0----2-2-2-2-|
A-------------------------------------------------------------------|
E--3-----------3--1-------------------------------------------------|



Guitar 2
e-------------------------------------------------------------------| 
B-----------------------15----15-----15----15-------15-----------15-| 
G---------------------------15----15~---15----14~~---12---12--------|
D-------------------------------------------------------------------|
A-------------------------------------------------------------------|
E-------------------------------------------------------------------|



Guitar 1
e-------------------------------------------------------------------|
B--------3---------------3------------3-3-3-3----3-3-3-3----3-3-3-3-|
G------3---3-----------3---3----------3-3-3-3----2-2-2-2----0-0-0-0-|
D-------------------------------------2-2-2-2----0-0-0-0----2-2-2-2-|
A-------------------------------------------------------------------|
E--3-----------3--1-------------------------------------------------|


Guitar 2
e-------------------------------------------------------------------| 
B-----------------------------------3---3------3---3-------------3--| 
G--12~~~~~~~~~~~------------------3---3------3---2---2-----0--0-----| 
D-------------------------------------------------------------------| 
A-------------------------------------------------------------------| 
E-------------------------------------------------------------------|


Guitar 1
e-----------------------------------------------------|
B-------8-------------8-------------8-----------------|
G-----8---8---------8---8---------8---8---------------|
D-----------------------------------------------------|
A-------------------------------8----------0--0-------|
E--8----------8--6----------6-------------------6--6--|





Guitar 2
e----------------------------------------------------| 
B----4---------------------------------------3b--3br-| 
G----------------------------------------------------| 
D----------------------------------------------------| 
A----------------------------------------------------| 
E----------------------------------------------------| 



Guitar 1
e-------------------------------------------------------------------|
B--------3---------------3------------3-3-3-3----3-3-3-3----3-3-3-3-|
G------3---3-----------3---3----------3-3-3-3----2-2-2-2----0-0-0-0-|
D-------------------------------------2-2-2-2----0-0-0-0----2-2-2-2-|
A-------------------------------------------------------------------|
E--3-----------3--1-------------------------------------------------|



Guitar 2
e-------------------------------------------------------------------| 
B-----------------------15----15-----15----15-------15-----------15-| 
G---------------------------15----15~---15----14~~---12---12--------|
D-------------------------------------------------------------------|
A-------------------------------------------------------------------|
E-------------------------------------------------------------------|




Guitar 3
e-----12-------12----------12-------12----------12------12-----|
B---15---15--15---15-----15---15--15---15-----15--15--15---15--|
G-15-------15-------15-14-------14-------14-13------13---------|
D--------------------------------------------------------------|
A--------------------------------------------------------------|
E--------------------------------------------------------------|



Guitar 3
e-----12-------12----------12-------12----------12------12-----|
B---15---15--15---15-----15---15--15---15-----15--15--15---15--|
G-15-------15-------15-14-------14-------14-13------13---------|
D--------------------------------------------------------------|
A--------------------------------------------------------------|
E--------------------------------------------------------------|



Guitar 3
e-----12-------12-----|
B---15---15--15---15--|
G-13-------13---------|
D---------------------|
A---------------------|
E---------------------|



Verse 2:

Guitar 1
e-----------------------------------------------------|
B-------8-------------8-------------8-----------------|
G-----8---8---------8---8---------8---8---------------|
D-----------------------------------------------------|
A-------------------------------8----------0--0-------|
E--8----------8--6----------6-------------------6--6--|



Guitar 1
e-----------------------------------------------------|
B-------8-------------8-------------8-----------------|
G-----8---8---------8---8---------8---8---------------|
D-----------------------------------------------------|
A-------------------------------8----------0--0-------|
E--8----------8--6----------6-------------------6--6--|




Guitar 1
e-------------------------------------------------------------------|
B--------3---------------3------------3-3-3-3----3-3-3-3----3-3-3-3-|
G------3---3-----------3---3----------3-3-3-3----2-2-2-2----0-0-0-0-|
D-------------------------------------2-2-2-2----0-0-0-0----2-2-2-2-|
A-------------------------------------------------------------------|
E--3-----------3--1-------------------------------------------------|



Guitar 2
e-------------------------------------------------------------------| 
B-----------------------15----15-----15----15-------15-----------15-| 
G---------------------------15----15~---15----14~~---12---12--------|
D-------------------------------------------------------------------|
A-------------------------------------------------------------------|
E-------------------------------------------------------------------|



Guitar 1
e-------------------------------------------------------------------|
B--------3---------------3------------3-3-3-3----3-3-3-3----3-3-3-3-|
G------3---3-----------3---3----------3-3-3-3----2-2-2-2----0-0-0-0-|
D-------------------------------------2-2-2-2----0-0-0-0----2-2-2-2-|
A-------------------------------------------------------------------|
E--3-----------3--1-------------------------------------------------|





Guitar 2
e-------------------------------------------------------------------| 
B-----------------------------------3---3------3---3-------------3--| 
G--12~~~~~~~~~~~------------------3---3------3---2---2-----0--0-----| 
D-------------------------------------------------------------------| 
A-------------------------------------------------------------------| 
E-------------------------------------------------------------------| 




Guitar 1
e-----------------------------------------------------|
B-------8-------------8-------------8-----------------|
G-----8---8---------8---8---------8---8---------------|
D-----------------------------------------------------|
A-------------------------------8----------0--0-------|
E--8----------8--6----------6-------------------6--6--|




Guitar 2
e--------------------------------------------------------| 
B--------------------------------------------------------| 
G----4---------------------------------------------------| 
D--------------------------------------------------------| 
A--------------------------------------------------------| 
E--------------------------------------------------------| 



Guitar 1
e-------------------------------------------------------------------|
B--------3---------------3------------3-3-3-3----3-3-3-3----3-3-3-3-|
G------3---3-----------3---3----------3-3-3-3----2-2-2-2----0-0-0-0-|
D-------------------------------------2-2-2-2----0-0-0-0----2-2-2-2-|
A-------------------------------------------------------------------|
E--3-----------3--1-------------------------------------------------|



Guitar 2
e-------------------------------------------------------------------| 
B-----------------------15----15-----15----15-------15-----------15-| 
G---------------------------15----15~---15----14~~---12---12--------|
D-------------------------------------------------------------------|
A-------------------------------------------------------------------|
E-------------------------------------------------------------------|




Guitar 3
e-----12-------12----------12-------12----------12------12-----|
B---15---15--15---15-----15---15--15---15-----15--15--15---15--|
G-15-------15-------15-14-------14-------14-13------13---------|
D--------------------------------------------------------------|
A--------------------------------------------------------------|
E--------------------------------------------------------------|



Guitar 3
e-----12-------12----------12-------12----------12------12-----|
B---15---15--15---15-----15---15--15---15-----15--15--15---15--|
G-15-------15-------15-14-------14-------14-13------13---------|
D--------------------------------------------------------------|
A--------------------------------------------------------------|
E--------------------------------------------------------------|



Guitar 3
e-----12-------12-----|
B---15---15--15---15--|
G-13-------13---------|
D---------------------|
A---------------------|
E---------------------|



e---------------------------------------|
B---------------------------------------|
G---------------------------------------|		X8
D---------------------------------------|
A---0--0--0--3--0---------------3--5----|
E---------------------4--4--4-----------|



Guitar 2
e--------------------------------------------------|
B--------------------------------------------------|
G--------------------------------------------------|
D--------------------------------------------------|
A---0--0--0--0--3--0----------------3--5-/-/-//////|
E-----------------------4--4--4--4-----------------|



Guitar 2
e--------------------------------------------------|
B--------------------------------------------------|
G--------------------------------------------------|
D--------------------------------------------------|
A---0--0--0--0--3--0----------------3--5-----------|
E-----------------------4--4--4--4-----------------|
            
Submit corrections

comments powered by Disqus
↑ Back to top | Radiohead Tabs for Paranoid Android. Lyrics for acoustic guitar and electric guitar. Tablatures and chords are parodies/interpretations of the original songs. You may use it for private study, scholarship, research or language learning purposes only