» » »

Paperbag Writer Bass tabs (ver.1)

Artists:  A B C D E F G H I J K L M N O P Q R S T U V W X Y Z # 

Paperbag Writer Bass tabs (ver.1)

Radiohead
Rating:
0/5 (0 votes)

Hard to play? Try these video lessons and learn fast.
                This is my first tab, so if it's wrong, do it yourself...

Band - Radiohead
Song - Paperbag Writer


There are only a few different riffs - This is the main one, which comes in at 00:56;

Riff 1
G-----------------------------------------
D-----------------------------------------
A-------33--33----33--33--33--------------
E-----------------------------------------
        ^ Start off the beat 

Others;

Riff 2
G---------------------------------------
D---------------------------------------
A---00--33--33----33--33--33------------ 
E---------------------------------------


Riff 3
G---------------------------------------
D---------------------------------------
A---00--33--33--------------------------
E--------------------------------------- 


Riff 4
G---------------------------------------
D---------------------------------------
A---00--33--55--77--9--12--3------------
E---------------------------------------


Riff 5
G---------------------------------------
D---------------------------------------
A---(0)--3-3--33333---------------------
E--------------------------------------- 


Riff 6
G---------------------------------------
D---------------------------------------
A--------3-3--33333---0--9--------------
E--------------------------------------- 



Riff 1
Riff 2 X 4
Riff 3
Riff 4

Rest

Riff 5 X3
Riff 4
Riff 5 X3
Riff 4
Riff 5 X3
Riff 4
Riff 5 X3
Riff 4

Rest 

Riff 5  (After this, don't play the ghost note in Riff 5)
Riff 5 X2 
Riff 6
Riff 5 X3
Riff 6
Riff 5 X3
Riff 6
Riff 5 X3
Riff 6
Riff 5 X3
Riff 6
Riff 5 X3
Riff 6
Riff 5 X3
Riff 6
Riff 5 X3
Riff 6


And that's it!
            
Hard to play? Try these video lessons and learn fast. | Correct




comments powered by Disqus
↑ Back to top | Tablatures and chords are parodies/interpretations of the original songs. You may use it for private study, scholarship, research or language learning purposes only