» » »

Pact Like Sardines In A Crushed Tin Can Bass tabs (ver.1)

Artists:  A B C D E F G H I J K L M N O P Q R S T U V W X Y Z # 

Pact Like Sardines In A Crushed Tin Can Bass tabs (ver.1)

Radiohead
Rating:
0/5 (0 votes)

Hard to play? Try these video lessons and learn fast.
                drop-d tuning

this is the main riff:

G --------------------------------
D --------------------------------
A 3h5-3--3-3--2--0h2-0------------
D ---------------------3--3/5-3-0-

this is the main variation:

G -----------------------------
D -----------------------------
A 3h5-3--3-3-2--5------0-3---5-
D ----------------3-5------3---
            
Hard to play? Try these video lessons and learn fast. | Correct




comments powered by Disqus
↑ Back to top | Tablatures and chords are parodies/interpretations of the original songs. You may use it for private study, scholarship, research or language learning purposes only