» » »

Radiohead, No Surprises Tabs (ver.5)

Artists:  A B C D E F G H I J K L M N O P Q R S T U V W X Y Z # 

No Surprises Tabs (ver.5)

Radiohead Tabs
 Rating:
4/5 (4 votes)
No Surprises lessons Tabs too difficult? Try these video lessons and learn fast
                                    /////////////////////////////
                    /////////////////////////////

        There is of courses two guitarists, but I've just
        tabbed the commonly heard version played by most solo
        cover guitarists. I've tabbed out all of the individual
        parts with a song structure list at the end. This is my
        first tab, but I'm pretty sure it's 100% correct.

               Main riff                   Extension

E|-17----------17----------17----------|---------15-|
B|-------18----------18----------18----|------18----|
G|----17----17----17----17----17----17-|15-18-------|
D|-------------------------------------|------------|
A|-------------------------------------|------------|
E|-------------------------------------|------------|


               Riff variation 1

E|-17----------17----------17----------17----------|
B|-------18----------18----------18----------18----|
G|----15----15----15----15----15----15----15----15-|
D|-------------------------------------------------|
A|-------------------------------------------------|
E|-------------------------------------------------|


               Riff Variation 2

E|-18----------18----------------------------------|
B|----15-18-15----15-18-15-18-17-------------------|
G|-------------------------------17----------17-15-|
D|----------------------------------17-17h19-------|
A|-------------------------------------------------|
E|-------------------------------------------------|


               Chorus

E|----------------------------------------------|
B|----------------------------------------------|
G|-19-17-17-15-15-17-17-15----------15-17-15----|
D|----------------19-19-17-17-17h19----------15-|
A|----------------------------------------------|
E|----------------------------------------------|


E|----------------------------------------------|
B|----------------------------------18----17----|
G|-19-17-17-15-15-17-17-15----------------------|
D|----------------19-19-17-17-17-17----17----17-|
A|----------------------------------------------|
E|----------------------------------------------|


E|----------------------------------------------|
B|----------------------------------------------|
G|-19-17-17-15-15-17-17-15----------15-17-15----|
D|----------------19-19-17-17-17h19----------15-|
A|----------------------------------------------|
E|----------------------------------------------|


               Solo


E|-------------------------|
B|-17----17----18p17-------|
G|-------------------17----|
D|----17----17----------17-|
A|-------------------------|
E|-------------------------|


E|----------------20p18----------------------------------------15----|
B|-------------18-------18----------------18-15----------16-18----18-|
G|-17-15-15-18-------------18-------15----------15-17-18-------------|
D|----------------------------17-17----17----------------------------|
A|-------------------------------------------------------------------|
E|-------------------------------------------------------------------|


E|----20p18----------------------------------------15----|
B|-18-------18----------------18-15----------16-18----18-|
G|-------------18-------15----------15-17-18-------------|
D|----------------17-17----17----------------------------|
A|-------------------------------------------------------|
E|-------------------------------------------------------|


        Main Riff w/ Extension x4
        Main Riff
        Riff Variation 1
        Riff Variation 2
        Main Riff w/ Extension
        Main Riff
        Riff Variation 1
        Riff Variation 2
        Main Riff w/ Extension
        Riff Variation 1
        Riff Variation 2
        Chorus
        Main Riff w/ Extension x2
        Riff Variation 1
        Riff Variation 2
        Chorus
        Main Riff 1 w/ Extension
        Solo
        Main Riff
        Riff Variation 1
        Chorus
        Main Riff w/ Extension x2
            
Submit corrections

comments powered by Disqus
↑ Back to top | Radiohead Tabs for No Surprises. Lyrics for acoustic guitar and electric guitar. Tablatures and chords are parodies/interpretations of the original songs. You may use it for private study, scholarship, research or language learning purposes only