>
 >
Nice Dream

Nice Dream Guitar Tabs

Radiohead - Nice Dream chords, tabs, tablatures, lyrics

Guitar lessons | Add/correct | Request | Top 50 tabs Artists:  A B C D E F G H I J K L M N O P Q R S T U V W X Y Z 0-9

Nice Dream Guitar Tabs – Radiohead

CD, Sheet music, Poster

Do you like Nice Dream? Share with your friends now
TabsUkulele
SOLO:

e|-----------------------------||-----------------------------|
b|-----------------------------||-----------------------------|
g|-----5--7^(full)-------------||-----5--7^(full)-------------|
D|--7--------------------------||--7--------------------8--8--|
A|-----------------------------||-----------------------8--8--|
E|-----------------------------||--------------------------8--|


e|-----------------------------||-------------------15^--14^--|
b|-----------------------------||-------------------18^--17^--|
g|-----5--7^(full)-------------||-------5--7^(full)-----------|
D|--7--------------------------||----7------------------------|
A|-----------------------------||-----------------------------|
E|-----------------------------||-----------------------------|


|--12----------------20^--19^--||--17-----------------15--14--|
|--15----------------23^--22^--||--20-----------------18--17--|
|--------5--7^(full)-----------||--------5--7^(full)----------|
|-----7------------------------||-----7-----------------------|
|------------------------------||-----------------------------|
|------------------------------||-----------------------------|





Comments


Popular Radiohead tabs & chords
Bangers N Mash Bass Tabs
Bloom 2 Bass Tabs
Electioneering 3 Bass Tabs
Where I End & You Begin 1 Bass Tabs
Fake Plastic Trees 2 Chords
No Surprises Chords
Faust Arp 2 Tabs
Pyramid Song Tabs
Talk Show Host 2 Tabs
The Tourist Tabs


Song lyrics



↑ Back to top | Tablatures and chords are parodies/interpretations of the original songs. You may use it for private study, scholarship, research or language learning purposes only
© 2014 AZChords.com Contact us | Privacy policy | DMCA | Add/correct tabs | Request tabs | Top 50 tabs