» » »

Myxomatosis Tabs (ver.5)

Artists:  A B C D E F G H I J K L M N O P Q R S T U V W X Y Z # 

Myxomatosis Tabs (ver.5)

Radiohead
Rating:
0/5 (0 votes)

Hard to play? Try these video lessons and learn fast.
                Main Riff:

G---------------------------|
D----------------------9-10-|
A-10-7-9----7---------------|
E--------10---8-10-7-8------|

G--------------------7------|
D-------------7--------7-9--|
A-10-7-9----7---10-7--------|
E--------10-----------------|

(repeat during verse, silence during chorus)
            
Hard to play? Try these video lessons and learn fast. | Correct




comments powered by Disqus
↑ Back to top | Tablatures and chords are parodies/interpretations of the original songs. You may use it for private study, scholarship, research or language learning purposes only