» » »

Myxamatosis Bass tabs (ver.1)

Artists:  A B C D E F G H I J K L M N O P Q R S T U V W X Y Z # 

Myxamatosis Bass tabs (ver.1)

Radiohead
Rating:
0/5 (0 votes)

Hard to play? Try these video lessons and learn fast.
                Main Bits

G|-------------------------|------------------7----|
D|--------------------9-10-|------------7-5----7-9-|
A|-10-7-9-5-7-3-5-2-3------|-10-7-9-5-7-----7------|
E|-------------------------|-----------------------|

Other Bits
G|----------------------9-|----------------------7-|
D|------------------------|------------------------|
A|-10-7-9-5-7-2-3-5---7---|-10-7-9-5-7-2-3-5---7---|
E|------------------------|------------------------|

G|------------------------|------------4-5-7-----9-|
D|------------------------|------------------------|
A|-10-7-9-5-7-3-5-2-3-2-0-|-10-7-9-5-7---------7---|
E|------------------------|------------------------|

G|------------4-5-7-----7-|------------4-5-7-----9-|
D|------------------------|------------------------|
A|-10-7-9-5-7--------7----|-10-7-9-5-7---------7---|
E|------------------------|------------------------|
            
Hard to play? Try these video lessons and learn fast. | Correct




comments powered by Disqus
↑ Back to top | Tablatures and chords are parodies/interpretations of the original songs. You may use it for private study, scholarship, research or language learning purposes only