>
 >
Motion Picture Soundtrack Accoustic

Motion Picture Soundtrack Accoustic Guitar Tabs

Radiohead - Motion Picture Soundtrack Accoustic chords, tabs, tablatures, lyrics

Guitar lessons | Add/correct | Request | Top 50 tabs Artists:  A B C D E F G H I J K L M N O P Q R S T U V W X Y Z 0-9

Motion Picture Soundtrack Accoustic Guitar Tabs – Radiohead

CD, Sheet music, Poster

Do you like Motion Picture Soundtrack Accoustic? Share with your friends now
Tabs
Motion Picture Soundtrack - Radiohead
Picking Pattern based on Muse's Unintended
-Enjoy-

VERSE
1)Red            Wine          and slee--------ping pills
2)Stop           Send------ing   Le--------------tters
  G                                 Csus2
e|---------3---------------3----------------3---------------3----------|
B|-----3-----3---------3-----3----------0-----0---------0-----0--------|
G|-------0-----0---------0-----0----------0-----0---------0-----0------|
D|---------------0---------------0----0-----------0---0-----------0----|
A|---2---------------2--------------3---------------3------------------|
E|-3---------------3---------------------------------------------------|



1)Help me get    back       to your arms
2)Letters        al-------ways get burned.                       It's
  Bmadd9                           Csus2
e|---------2---------------2---------------3---------------3-----------|
B|-----0-----0---------0-----0---------0-----0---------0-----0---------|
G|-------0-----0---------0-----0---------0-----0---------0-----0-------|
D|---0-----------0---0-----------0---0-----------0---0-----------0-----|
A|-2---------------2---------------3---------------3-------------------|
E|---------------------------------------------------------------------|

1)Cheap          Sex             and sad         films
2) not        like            the mo----------vies
   G                                 Csus2
e|---------3---------------3----------------3---------------3----------|
B|-----3-----3---------3-----3----------0-----0---------0-----0--------|
G|-------0-----0---------0-----0----------0-----0---------0-----0------|
D|---------------0---------------0----0-----------0---0-----------0----|
A|---2---------------2--------------3---------------3------------------|
E|-3---------------3---------------------------------------------------|



1)Help me get    where       I belong                        I think your
2)They fed    on               white Lie-----------s         I think your
  Bmadd9                           Csus2
e|---------2---------------2---------------3---------------3-----------|
B|-----0-----0---------0-----0---------0-----0---------0-----0---------|
G|-------0-----0---------0-----0---------0-----0---------0-----0-------|
D|---0-----------0---0-----------0---0-----------0---0-----------0-----|
A|-2---------------2---------------3---------------3-------------------|
E|---------------------------------------------------------------------|

CHORUS
   Cra-------------zy,            may-------------be          I think your
   Em              C               G               G/F#
e|---------0---------------0---------------3---------------3-----------|
B|-----------0---------0-----0---------0-----0---------3-----3---------|
G|-----0-------0---------0-----0---------0-----0---------0-----0-------|
D|-------2-------2---2-----------2---------------0---------------0-----|
A|---2-------------3-----------------2---------------0-----------------|
E|-0-------------------------------3---------------2-------------------|


   Cra-------------zy,            may-------------be         
   Em              C               G               G/F#
e|---------0---------------0----------------3---------------3----------|
B|-----------0---------0-----0----------0-----0---------3-----3--------|
G|-----0-------0---------0-----0----------0-----0---------0-----0------|
D|-------2-------2---2-----------2----------------0---------------0----|
A|---2-------------3------------------2---------------0----------------|
E|-0--------------------------------3---------------2------------------|

END 
           I will see      you             in the ne-------xt
   B7                              Em              C#/E   
e|---------2---------------2---------------0---------------0-----------|
B|-----0-----0---------0-----0---------0-----0---------0-----0---------|
G|-------2-----2---------2-----2-----0---0-----0---------0-----0-------|
D|---1-----------1---1-----------1-0-------------0---2-----------0-----|
A|-2---------------2-------------------------------4-------------------|
E|---------------------------------------------------------------------|

  Life
  Cmaj7
e|---------0-------------|
B|-----0-----0-----------|
G|-------0-----0---------|
D|---2-----------2-------|
A|-3---------------3-----|
E|-----------------------|





Comments


Popular Radiohead tabs & chords
My Iron Lung 2 Bass Tabs
Go Slowly Chords
Killer Cars Chords
A Wolf At The Door Tabs
Fade Out Street Spirit Tabs
Fake Plastic Trees Tabs
Optimistic Complete Tabs
Romeo And Juliet Tabs
Steet Spirit Tabs
Polyethylene Ukulele


Song lyrics



↑ Back to top | Tablatures and chords are parodies/interpretations of the original songs. You may use it for private study, scholarship, research or language learning purposes only
© 2014 AZChords.com Contact us | Privacy policy | DMCA | Add/correct tabs | Request tabs | Top 50 tabs