>
 >
Morning Bell 3

Morning Bell 3 Guitar Tabs

Radiohead - Morning Bell 3 chords, tabs, tablatures, lyrics

Guitar lessons | Add/correct | Request | Top 50 tabs Artists:  A B C D E F G H I J K L M N O P Q R S T U V W X Y Z 0-9

Morning Bell 3 Guitar Tabs – Radiohead

CD, Sheet music, Poster

Do you like Morning Bell 3? Share with your friends now
Bass TabsChordsTabsTabs v2Tabs v3Tabs v4Ukulele
-------------------------------------------------------------------------------
                             Morning Bell by Radiohead
-------------------------------------------------------------------------------

This is the live version with jonny and ed's more audible guitars during performances, i
people would like to play off this version than the studio one.

Ed

"Where'd you park your car?" and used in the outro
e|---------------------------------------------------------------------------|
B|---------------------------------------------------------------------------|
G|--2-2/14-14-1414\-2-2-2h4b-4b-4-2------------------------------------------|
D|---------------------------------------------------------------------------|
A|---------------------------------------------------------------------------|
E|---------------------------------------------------------------------------|
it'll sound better if you slightly bend all of the above notes up & down, give it more
and its not really an audible hammer, just keep ur index finger on 2.

Jonny

"And round..."
e|---------------------------------------------------------------------------|
B|-------------3-xx-3x3-33-3-3-----------------------------------------------|
G|-------------------------------/---11-xx11-11x11-11-11--\\-----------------|
D|-------------5-xx-5x5-55-5-5----/--12-xx12-12x12-12-12--\\-----------------|
A|---------------------------------------------------------------------------|
E|---------------------------------------------------------------------------|
Repeat 2x, strum frantically

"Cut the kids in half."
e|-------x--------------x------x--------------x--etc-------------------------|
B|---------x-----------x-------x-------------x-------------------------------|
G|----------x---------x---------x-----------x--------------------------------|
D|-----------x-------x-----------x---------x---------------------------------|
A|------------x-----x-------------x-------x----------------------------------|
E|-------------x---x---------------x-----x-----------------------------------|
Eh, idk, maybe a little delay, mainly just stroke mutes up and down like ur cutting the
in half

"Walkin, walkin walkin walkin..."
e|----------0---------0---------0----------0--------0------0-----------------|
B|-------3---------3--------------------4--------4---------------------------|
G|----5---------5-----------5--------6--------6--------6---------------------|
D|---------------------------------------------------------------------------|
A|---------------------------------------------------------------------------|
E|---------------------------------------------------------------------------|
Repeat 2x

e|---------------------------------------------------------------------------|
B|---------------------------------------------------------------------------|
G|---------------------------------------------------------------------------|
D|---------------------------------------------------------------------------|
A|----15p14-14-15p14-14-15-14--12p11-11-12p11-11-12-11-----------------------|
E|---------------------------------------------------------------------------|

e|-----------------/xxx--xx\----------------------/xx-------xxxx\\\\---------|
B|-------------/xx----------xx\----------------/xx-----xxx----------x\\\-----|
G|------------/xxx------------xx\-----------/x----------------------x\\\-----|
D|------------------------------x\-------------------------------------------|
A|---------------------------------------------------------------------------|
E|---------------------------------------------------------------------------|

K, things for the high pitched outro, ur gonna wanna pick scrape frantically over your
for a bunch of sound, maybe even make ur strings touch them by pressing hard. and u dont
scrape it conventionally, i move the pick in a perpindicular motion (like straight 
L/R) relevant to the pickup. also u can move ur hand up and down the fretboard for
added tone, i like mine high up getting 15 barred, etc.

other than that, add an effect, probably some delay and i use flanger, sounds decent.
i hope u enjoy, :) i did. my first tab of the greatest and most talented band ever. peace.





Comments


Popular Radiohead tabs & chords
Just 4 Bass Tabs
Maquiladora Bass Tabs
The Bends Bass Tabs
Codex 1 Chords
Stupid Car Chords
Dollars And Cents Tabs
Electioneering 1 Tabs
Lozenge Of Love Tabs
Lucky 2 Tabs
Polyethylene Ukulele


Song lyrics



↑ Back to top | Tablatures and chords are parodies/interpretations of the original songs. You may use it for private study, scholarship, research or language learning purposes only
© 2014 AZChords.com Contact us | Privacy policy | DMCA | Add/correct tabs | Request tabs | Top 50 tabs