» » »

Radiohead, Morning Bell Tabs (ver.3)

Artists:  A B C D E F G H I J K L M N O P Q R S T U V W X Y Z # 

Morning Bell Tabs (ver.3)

Radiohead Tabs
Rating:
0/5 (0 votes)
Morning Bell lessons Tabs too difficult? Try these video lessons and learn fast
                Morning Bell - Radiohead

Part One (3 times at intro)


e|-----------------------------------------|
B|-----------------------------------------|
G|------14---14---14-14---13---13---14-14--|
D|------14---14---14-14---14---14---14-14--|
A|--12-------------------------------------|
E|-----------------------------------------|

Part Two (twice at intro)
e|-----------------------------------------|
B|-----------------------------------------|
G|------12---12---12-12---11-11-11---------|
D|------12---12---12-12---12-12-12---------|
A|--10-------------------------------------|
E|-----------------------------------------|

Change Near the Middle
e|-----------------------------------------|
B|-----------------------------------------|
G|-------9---9---9-----8---8---9-9---------|
D|-------9---9---9-----9---9---9-9---------|
A|---7-------------------------------------|
E|-----------------------------------------|

e|-----------------------------------------|
B|-----------------------------------------|
G|-------7---7---7-----6---6---6-----------|
D|-------7---7---7-----7---7---7-----------|
A|---6-------------------------------------|
E|-----------------------------------------|
            

comments powered by Disqus
↑ Back to top | Radiohead Tabs for Morning Bell. Lyrics for acoustic guitar and electric guitar. Tablatures and chords are parodies/interpretations of the original songs. You may use it for private study, scholarship, research or language learning purposes only