» » »

Radiohead, Lotus Flower Bass tabs (ver.4)

Artists:  A B C D E F G H I J K L M N O P Q R S T U V W X Y Z # 

Lotus Flower Bass tabs (ver.4)

Radiohead Tabs
 Rating:
4/5 (4 votes)
Lotus Flower lessons Tabs too difficult? Try these video lessons and learn fast
                RADIOHEAD - LOTUS FLOWER
THE KING OF LIMBS

Brilliant song.. Amazing video! LOVE RADIOHEAD! Incredibly detailed album.. 
takes a few listens to realise how much thought and work must have been put
in to make each moment on the album the way it is. These guys are not just
gifted they have incredible amounts of music and rhythm sense. And Thom
doesnt even know how to read music. Once in a lifetime band. As good as
anyone who ever rocked an audience on the globe. And i'm counting The Beatles
and Led Zeppelin too.. I really hope they release a second disc for this
album too.. 37 minutes isnt long enough. I want MORE!



INTRO

G|--------------------------------*--------------------------------------|
D|--------------------------------*------------------------------9-------|
A|----------8------8-10~~--8------*-8----8--10---8------8-----------8----|
E|--10~~~~~----8~~-----------10~~-*---8-------------10-----8---8-------10|


G|-----------------------------------------------------------------------|
D|------------9-----------------9----------------------------------------|
A|---------------8-----------------8------8------------------------------|
E|--8-10---8-------10--8-10--8-------10-----10~~~~~~~~~~~~~~-------------|

* = pretty cool sound effect

VERSE

G|------------------------------------|
D|------------------------------------| x2
A|--------8-------8------8-------8----|
E|--1010----8-10---8-10----8-10----10-|

G|------------------------------------|
D|------------------------------------|
A|--10--7-8--10--7-8-8-------8--------|
E|---------------------10--8---10--8--|

G|------------------------------------|
D|------------------------------------|
A|--------8-------8------8-------8----|
E|--1010----8-10---8-10----8-10----10-|

This should give you a basic idea. Brilliant bass on this song and the album. 
Colin has shone like never before.

Enjoy! And keep loving radiohead!
Cheers 
            
Submit corrections

comments powered by Disqus
↑ Back to top | Radiohead Bass for Lotus Flower. Lyrics for acoustic guitar and electric guitar. Tablatures and chords are parodies/interpretations of the original songs. You may use it for private study, scholarship, research or language learning purposes only