>
 >
Little By Little

Little By Little Guitar Tabs

Radiohead - Little By Little chords, tabs, tablatures, lyrics

Guitar lessons | Add/correct | Request | Top 50 tabs Artists:  A B C D E F G H I J K L M N O P Q R S T U V W X Y Z 0-9

Little By Little Guitar Tabs – Radiohead

CD, Sheet music, Poster

Do you like Little By Little? Share with your friends now
Bass TabsTabsTabs v2Tabs v3
Hey hey hey! This is my first tab ever! I don't know why I've never made one before. oh well.

First off, you're a Radiohead fan, or you're becoming one, so I LOVE YOU.

I picked this out from the From The Basement version of this song.
It is freaking wonderful. watch it. :D


Verse!

E|----------------------------------------------------|
B|----------------------------------------------------|
G|--2--2--1-----3--3--2-----7--7--6-----9---9---7-----|
D|--0--0--0--0--0--0--0--0--0--0--0--0--0---0---0--0--|
A|-----------0-----------0-----------0-------------0--|
E|--3--3--2--0--5--5--3--0--8--8--7--0--10--10--9--0--|



 Chorus thingy!

E|------------------------------------------------|
B|------------------------------------------------|
G|-----11--10-----10---------10------9------9-----|   These are just the basic notes of the
D|------------------------------------------------|    chorus part thingy of the song. It's not
A|------------------------------------------------|   supposed to be the exact rhythm.
E|--0----------8------8--10------10-----10--------|



Mid-chorus thingy!

E|-------------------------|
B|-------------------------|
G|----3----5----7----9-----|
D|----0----0----0----0-----|   Once again, just the basic chords. Strum each chord accordingly!
A|-------------------------|
E|----5----7----8----10----|



Bridge thingy!

E|--------------------|
B|--------------------|
G|----3----0----2-----|    What I said earlier about mid-chorus thingy!
D|----0----0----0-----|
A|--------------------|
E|----5----1----4-----|





Comments


Popular Radiohead tabs & chords
Bloom Bass Tabs
Backdrifts Chords
Bulletproof... I Wish I Was Chords
Hungry Chords
Blow Out 1 Tabs
Kinetic Tabs
Polyethylene Tabs
The Tourist Tabs
Motion Picture Soundtrack Ukulele
Palo Alto Ukulele


Song lyrics



↑ Back to top | Tablatures and chords are parodies/interpretations of the original songs. You may use it for private study, scholarship, research or language learning purposes only
© 2014 AZChords.com Contact us | Privacy policy | DMCA | Add/correct tabs | Request tabs | Top 50 tabs