>
 >
Like Spinning Plates

Like Spinning Plates Guitar Tabs

Radiohead - Like Spinning Plates chords, tabs, tablatures, lyrics

Guitar lessons | Add/correct | Request | Top 50 tabs Artists:  A B C D E F G H I J K L M N O P Q R S T U V W X Y Z 0-9

Like Spinning Plates Guitar Tabs – Radiohead

CD, Sheet music, Poster

Do you like Like Spinning Plates? Share with your friends now
Bass TabsChordsChords v2TabsUkulele
Like Spinning Plates (Live version) - Radiohead

This is Thom's piano part from the live show in Ohio. The easiest way to
read the tab is to think if it as 5 different chords broken into
appreggios. That's all it is, you just play them in the order I've written,
and when you only play the 1st half of a riff, I've written it. That's it.

Chord 1

E---------5---4---|---------4---2---|
B-----2-----------|-----2-----------|
G-------2---------|-------2---------|
D---2-------------|---2-------------|
A-0---------------|-0---------------|
E-----------------|-----------------|

Chord 2

E---------5---4---|---------4---4---|
B-----------------|-----------------|
G-----6-----------|-----6-----------|
D---6-------------|---6-------6-----|
A-4---------------|-4---------------|
E-----------------|-----------------|

Chord 3

E-------------4---|-------------4---|
B---------4-------|---------4-------|
G-----5-----------|-----5-----------|
D-----------------|-----------------|
A---6-------------|---6-------------|
E-4---------------|-4---------------|

Chord 4

E-------------4---|-------------4---|
B---------2-------|---------2-------|
G-----3-----------|-----3-----------|
D-----------------|-----------------|
A---4-------------|---4-------------|
E-2---------------|-2---------------|

Chord 5

E-------------4---|
B---------0-------|
G-----1-----------|
D-----------------|
A---2-------------|
E-0---------------|

Intro

Chord 1
Chord 2
Chord 3
Chord 4

Chord 5
Half Chord 4
Chord 5
Half Chord 4

Half Chord 3
Half Chord 4
Half Chord 1
Half Chord 3

Half Chord 4
Half Chord 5
Half Chord 3
Half Chord 4

Half Chord 1
Chord 3
Chord 3

Chord 1
Chord 2
Chord 3
Chord 3

Chord 1
Chord 2
Chord 3
Chord 4

Chord 5
Half Chord 4
Chord 5
Half Chord 3

Chord 4
Half Chord 1
Half Chord 3

Half Chord 4
Chord 5
Half Chord 4
Chord 5

Verse 1

Half Chord 3       while you
Half Chord 4       make
Half Chord 1       pretty
Half Chord 3       speeches

Half Chord 4       -------
Half Chord 5       ---
Half Chord 3       i'm ...
Half Chord 4       ----

Half Chord 1       cut ..
Chord 3            s.....
Chord 3            you f...

Half Chord 4       me
Half Chord 1       to ...
Half Chord 3       l....
Half Chord 4       -------

Half Chord 5       -------
Half Chord 3       a
Half Chord 4       deli-
Half Chord 1       -cate

Chord 3            b......
Chord 3            and t...

Chorus:

Chord 1            just f....
Chord 2            like spinning
Chord 3            plates-------
Chord 3            i'm

Chord 1            livin' ..
Chord 2            c.... ......
Chord 3            land------
Chord 3            and t...

Chord 1            just feels
Chord 2            like spinning
Chord 3            plates-------
Chord 3

Chord 1            my b....
Chord 2            the m....
Chord 3            river--------
Chord 3

Outro:

Chord 1
Chord 2
Chord 3
Chord 3

Chord 1
Chord 2
Chord 3
Chord 4

Half Chord 5
Half Chord 4
Half Chord 5 (slower)
Half Chord 3 (slow)





Comments


Popular Radiohead tabs & chords
Creep Chords
Creep 6 Chords
Nobody Does It Better Chords
Nude 2 Chords
Karma Police Drum Tabs
Creep 1 Tabs
I Might Be Wrong Tabs
Lurgee Tabs
Scatterbrain Tabs
Airbag Ukulele


Song lyrics



↑ Back to top | Tablatures and chords are parodies/interpretations of the original songs. You may use it for private study, scholarship, research or language learning purposes only
© 2014 AZChords.com Contact us | Privacy policy | DMCA | Add/correct tabs | Request tabs | Top 50 tabs