» » »

Radiohead, Lewis Bass tabs (ver.1)

Artists:  A B C D E F G H I J K L M N O P Q R S T U V W X Y Z # 

Lewis Bass tabs (ver.1)

Radiohead Tabs
Rating:
0/5 (0 votes)
Lewis lessons Tabs too difficult? Try these video lessons and learn fast
                Riff 1		   	Riff 2
G------------------	G------------------
D------------------	D------------------
A--------------3-2-	A------------------
E--3-3-3-3-3-2-----	E--3-3-3-3-3-0-1-2-

Riff 3
G-------------------------------------------
D-------------------------------------------
A--------------------5-5.-------------------
E--3-3.--4-4.--5-5.--------3-3.--4-4.--5-5.-

G--5h7-5-4-2----------------------------
D---------------5------5-----5----------
A------------3-----2-2----0-----3-3-2-0-
E---------------------------------------

Riff 4
G-------------------------------------
D-------------------------------------
A-------------------------------------
E--5--------0--------3-3.--3-3.--3-3.-

Riff 4A		Riff 4B
G----------	G--------------
D----------	D--0-0-2-2-4-4-
A--3-2-0---	A--------------
E--------3-	E--------------

Riff 5
G-------------------------------
D---------------------------0---
A----------------2---2--2-2---2-
E--3--3--3-3-3-0----------------

Riff 5A
G-------------------------------
D-------------------------------
A--1--1-1-1-----------------5-5-
E-----------0-1-2-2-3-3-5-5-----

Riff 5B
G------------------------------2-2----
D--------------3-3-0-0-2-2-4-4--------
A--1-1-3-3-5-5------------------------
E----------------------------------3.-

Riff 6
G----------
D----------   *Just hit this note over and over again... 
A----------    listen to the song to find out when to
E--5*--0-2-    play the next two notes.

Riff 7
G----------------------------------
D----------------------------------
A--------------3-2-----------------
E--3-3-3-3-3-2-----3-3-3-3-3-2-3-4-

Play in this order:
[Bass rests at the beginning of the song...]
Riff 1 - 3x   \
Riff 2	       > Play 2x
Riff 3	      /
Riff 1 - 2x
Riff 4
Riff 4A
Riff 4
Riff 4B
Riff 1 - 3x
Riff 2
Riff 3
Riff 1 - 2x
Riff 4
Riff 4A
Riff 4
Riff 4B
Riff 5  \ Play 3x			
Riff 5A /           
Riff 5
Riff 5B
[A bit more silence]
Riff 6
Riff 7

Repeat Riffs 6 & 7 until the end of the song... end it with Riff 6 followed by E-3.
            

comments powered by Disqus
↑ Back to top | Radiohead Bass for Lewis. Lyrics for acoustic guitar and electric guitar. Tablatures and chords are parodies/interpretations of the original songs. You may use it for private study, scholarship, research or language learning purposes only