>
 >
Let Down. Lead Bits

Let Down. Lead Bits Guitar Tabs

Radiohead - Let Down. Lead Bits chords, tabs, tablatures, lyrics

Guitar lessons | Add/correct | Request | Top 50 tabs Artists:  A B C D E F G H I J K L M N O P Q R S T U V W X Y Z 0-9

Let Down. Lead Bits Guitar Tabs – Radiohead

CD, Sheet music, Poster

Do you like Let Down. Lead Bits? Share with your friends now
Tabs
------------5----|-------0---------|-4---------0-----|------------------------
------3---3------|-3---3-----3---3-|-----3---3-----3-|------------------------
----6---6-----6--|---6-----6---6---|---6---6-----6---|------------------------
-----------------|-----------------|-----------------|------------------------
-----------------|-----------------|-----------------|------------------------
-----------------|-----------------|-----------------|------------------------
                different part in the verse                                   

-----------------|-----------------|-----------------|-----------0-----|------
-3-3-3---3---3-3-|---3---3-3---3---|-3-3---3---3-3---|-3---3-3---3---3-|------
-------6---6-----|-6---6-----6---6-|-----6---6-----6-|---6-----6---6---|------
-----------------|-----------------|-----------------|-----------------|------
-----------------|-----------------|-----------------|-----------------|------
-----------------|-----------------|-----------------|-----------------|------
            chorus                                                            

------0-------0--|-----0-----------|-5-----4-----0---|---|---0-----------|----
----0-----0-----0|---0---3---3---3-|---3-----3-------|---|---------------|----
-11-----9---7----|-9-------6---6---|-----6-----6---6-|---|-4---4-2-1-----|----
-----------------|-----------------|-----------------|---|-----------2---|----
-----------------|-----------------|-----------------|-x2|-------------2-|----
-----------------|-----------------|-----------------|---|---------------|----
              last chorus and weird bit                                       

-----------------|-----------------|-----------------|-------------------|----
----------3------|-3-----3-----3---|---------------3-|-----3-------7-----|----
----2-4-6--------|---6-----6-----6-|---2---4---6-----|-6-----6---6---7---|----
-----------------|-----0-----0-----|-0---0---0---0---|---0-----0---------|----
-----------------|-----------------|-----------------|-------------------|----
-----------------|-----------------|-----------------|-------------------|----
                                                                              

-----------------|-------------5---|-----------------|----------------|-------
---------------3-|-----3---------0-|---------------3-|-----3-------7--|-------
---2---4---6-----|-6-----6---6-----|---2---4---6-----|-6-----6---6--6-|-------
-0---0---0---0---|---0-----0-------|-0---0---0---0---|---0-----0------|-------
-----------------|-----------------|-----------------|----------------|x2-----
-----------------|-----------------|-----------------|----------------|-------
              all below are in triplets                                       

-------------------------|---|-------5-4-0-4-0-----|---5-4-------0-----4---|--
---3---3---3---3---3---3-|---|---3---------------3-|---------3-----3-----3-|--
-6---6---6---6---6---6---|---|-6---6-----------6---|-6-----6---6-----6-----|--
-------------------------|---|---------------------|-----------------------|--
-------------------------|-x2|---------------------|-----------------------|--
-------------------------|---|---------------------|-----------------------|--
                                                                              

-0-----------------------|-----------------------5-|-4-0-4-0-------5-----4-|--
---3-2-3---3---3---3---3-|---3---3---3---3---3-----|-----------3-------3---|--
---------6---6---6---6---|-6---6---6---6---6---6---|---------6---6---6----6|--
-------------------------|-------------------------|-----------------------|--
-------------------------|-------------------------|-----------------------|--
-------------------------|-------------------------|-----------------------|--
                            no more triplets below                            

---0-----4-----0---------|-----------------|-----------|-----------|-------|--
-3-----3-----3---3---3---|-8---8-7---5---5-|---------3-|---3-------|-------|--
-----6-----6-------6---6-|---7-----7---7---|--2-4-6----|-6---6-6-6-|-2-4-2-|--
-------------------------|-----------------|-----------|-----------|-------|--
-------------------------|-----------------|-----------|-----------|-------|--
-------------------------|-----------------|-----------|-----------|-------|--
                                                                              

--------------|------------|---------------|----------------------------------
--------------|----------3-|-3-------------|----------------------------------
-2-0------2-4-|--4-2-4-6---|---4-6--6-0----|----------------------------------
-----2h4------|------------|---------------|----------------------------------
--------------|------------|---------------|----------------------------------
--------------|------------|---------------|----------------------------------
                   outro                                                      

-----------------|-----------------|---|-0-----|------------------------------
-----3-------3---|-----3-2-----2---|---|-2-----|------------------------------
-----------------|-----------------|---|-2-----|------------------------------
---2-------2-----|---2-------2-----|---|-2-----|------------------------------
-0-----0-0-----0-|-0-------0-----0-|-x3|-------|------------------------------
-----------------|-----------------|---|-------|------------------------------





Comments


Popular Radiohead tabs & chords
Feral Bass Tabs
Bulletproof I Wish I Was Tabs
Electioneering 1 Tabs
Fake Plastic Trees 2 Tabs
High And Dry 1 Tabs
House Of Cards 3 Tabs
Little By Little Tabs
No Surprises 5 Tabs
Stop Whispering 1 Tabs
The Bends 2 Tabs


Song lyrics



↑ Back to top | Tablatures and chords are parodies/interpretations of the original songs. You may use it for private study, scholarship, research or language learning purposes only
© 2014 AZChords.com Contact us | Privacy policy | DMCA | Add/correct tabs | Request tabs | Top 50 tabs