>
 >
Knives Out Intro

Knives Out Intro Guitar Tabs

Radiohead - Knives Out Intro chords, tabs, tablatures, lyrics

Guitar lessons | Add/correct | Request | Top 50 tabs Artists:  A B C D E F G H I J K L M N O P Q R S T U V W X Y Z 0-9

Knives Out Intro Guitar Tabs – Radiohead

CD, Sheet music, Poster

Do you like Knives Out Intro? Share with your friends now
Tabs
By Dany Chicoutimi,Qc,Ca

INTRO AND VERSE 1

 D#/C    Gm/Bb    Cm/G#                    Bb/G    Dm/F     E6
|----------------|------------------------|----------------|----0-----------|
|----88------88--|----44---------4----4---|----33------33--|-----3-2--------|
|--88--8---77--7-|--55--5-----55----5--5--|--33--3---22--2-|---0-------0-0--|
|----------------|----------55--5--5-5--5-|----------------|--2------22---2-|
|----------------|------------------------|----------------|---------------2|
|8-------6-------|4-------4---------------|3-------1-------|0---------------|

|1.2.3.4.1.2.3.4.|1.2.3.4.5.6.7.8.1.2.3.4.|1.2.3.4.1.2.3.4.|1.2.3.4.1.2.3.4.|


|----0-----------|
|-----3-2--------|
|---0-------0-0--|
|--2------22---2-|
|---------------2|
|0---------------|

|1.2.3.4.1.2.3.4.|

The E6 part variate with a A7/E thru out the song and C#...
...not mention here, too hard to ear, and not sure about it...improvisation...


...So, Knives out                                    Improvisation
 Am       A/G              Dm       D/C              D#M7/Bb Gm       
|--------|--------------0-|1-------|2-----------0-2-|3-------3-------|
|1-------|2-------2---3---|--3-----|--3-------3-----|3-------3-------|
|--2-----|--2-------2-----|----2---|----2-----------|3-------3-------|
|----2---|----2-----------|0-----0-|----------------|1---------------|
|0-----0-|----------------|--------|3-----3---------|1------0--------|
|--------|3-----3---------|--------|----------------|--------3------1|

|1.2.3.4.|1.2.3.4.1.2.3.4.|1.2.3.4.|1.2.3.4.1.2.3.4.|1.2.3.4.1.2.3.4.|

|3-------0-------|etc...
|3-------0-------|
|3-------0-------|
|2-------2-------|
|2------54-------|
|0-------0-------|

|1.2.3.4.1.2.3.4.|


Variation of the Verse 1
 D#/C    Gm/Bb    Cm/G#                    Bb/G    Dm/F     E6
|----6-------6---|-----3------3-----43----|----1-------1---|----0-----------|
|--8--8-8--8--8-8|--4---4--4---4-4-----4--|--3--3-3--3--3-3|-----3-2--------|
|-8-8--8--7-7--7-|-5--5---5--5--5--5-----5|-3-3--3--2-2--2-|---0-------0-0--|
|----------------|----------5-----5-------|----------------|--2------22---2-|
|----------------|------------------------|----------------|---------------2|
|8-------6-------|4-----------------------|3-------1-------|0---------------|

|1.2.3.4.1.2.3.4.|1.2.3.4.5.6.7.8.1.2.3.4.|1.2.3.4.1.2.3.4.|1.2.3.4.1.2.3.4.|


|----0-----------|
|-----3-2--------|
|---0-------0-0--|
|--2------22---2-|
|---------------2|
|0---------------|

Good luck!





Comments


Popular Radiohead tabs & chords
The Gloaming 2 Bass Tabs
The National Anthem 2 Bass Tabs
Bulletproof... I Wish I Was Chords
Last Flowers 1 Chords
Palo Alto Chords
Separator Chords
Exit Music 2 Tabs
I Might Be Wrong (Solo) Tabs
Lucky 1 Tabs
There There 2 Tabs


Song lyrics



↑ Back to top | Tablatures and chords are parodies/interpretations of the original songs. You may use it for private study, scholarship, research or language learning purposes only
© 2014 AZChords.com Contact us | Privacy policy | DMCA | Add/correct tabs | Request tabs | Top 50 tabs