» » »

Karma Police Bass tabs (ver.4)

Artists:  A B C D E F G H I J K L M N O P Q R S T U V W X Y Z # 

Karma Police Bass tabs (ver.4)

Radiohead
Rating:
0/5 (0 votes)

Hard to play? Try these video lessons and learn fast.
                Band: Radiohead
Tuning: Standard


Most bass tabs of Karma Police are wrong or incomplete. I have combined several tabs 
my own interpretations. You can address your comments or improvements to my email. It’s my 
tab, please rate it.

G|------------------------------------------------------------------|
D|--------------------------------------------------------2/-4------|
A|----------------------------------------3-2-0--0-0--2--------5----|
E|-5-\2-2--0--2h3—5-\1-1--0-2h3--5/10\3-----------------------------| x2

G|------------------------------------------------------------------|
D|--------------------------------------------------------2/-4------|
A|--------------------------------------------3--3-3--2------5------|
E|------------------------------------------------------------------|

G|------------------------------------------------------------------|
D|-------------------------------------------------------2/4--------|
A|----------------------------------------3-2-0--0-0--2------5------|
E|-5--\2--0--2h3--5-\1-1--0-2h3--5/10\3-----------------------------|
G|------------------------------------------------------------------|
D|------------------------------------------------------------------|
A|-3-3-2-2-0-0------------------------------------------------------|
E|-------------3--2--0—-2-------------------------------------------|

G|------------------------------------------------------------------|
D|--------------------------------------------7-6\2-----------------|
A|-2-2—-2/5-5------5--------5-5--5/7-7-7--5-7-----------------------|
E|-------------3--3---5\3-3---------0-0-0---------------------------|

G|------------------------------------------------------------------|
D|--------------------------------------------7-6\2-----------------|
A|-2-2—-2/5-5-----2-5-------5-5--5/7-7-7--5-7-----------------------|
E|------------3-5-----5\3-3---------0-0-7---------------------------|

G|----------------------------------------------------------------------|
D|---------------------------------------------------------------7-6\2--|
A|2-4-5-2\5-7-9-5/10-12-14-10\5-7-9-5---------5-7-9-5/7-7-7--5-7--------|
E|------------------------------------3-5-7-3----------0-0-0------------|

G|------------------------------------------------------------------|
D|--------------------------------------------7-6\2-----------------|
A|-2-2—-2/5-5-----2-5-------5-5--5/7-7-7--5-7-----------------------|
E|------------3-5-----5\3-3---------0-0-0---------------------------|

G|------------------------------------------------------------------|
D|--------------------------------------------7-6\2-----------------|
A|-2-2—-2/5-5------5--------5-5--5/7-7-7--5-7-----------------------|
E|-------------3--3---5\3-3---------0-0-0---------------------------|

G|------------------------------------------------------------------|
D|------------------------------------------------------------------|
A|2-4-5-2\5-7-9-5/10-12-14-10\5-7-9-5\--------5-7-9-5/7-7-7---------|
E|------------------------------------3-5-7-3----------0-0-0-7-5----|

G|------------------------------------------------------------------|
D|------------------------------------------------------------------|
A|2-4-5-2\5-7-9-5/10-12-14-10\5-7-9-5\--------5-7-9-5/7-7-7---------|
E|------------------------------------3-5-7-3----------0-0-0-7\-----|

| /  slide up
| \  slide down
| h  hammer-on
            
Hard to play? Try these video lessons and learn fast. | Correct




comments powered by Disqus
↑ Back to top | Tablatures and chords are parodies/interpretations of the original songs. You may use it for private study, scholarship, research or language learning purposes only