» » »

Radiohead, Karma Police Bass tabs (ver.3)

Artists:  A B C D E F G H I J K L M N O P Q R S T U V W X Y Z # 

Karma Police Bass tabs (ver.3)

Radiohead Tabs
Rating:
0/5 (0 votes)
Karma Police lessons Tabs too difficult? Try these video lessons and learn fast
                Song - Karma Police
Band - Radiohead

Intro and 1st verse

G |: ----------------------------------------------
D |: ----------------------------------------------
A |: ----------------------------------------------
E |: 5--5--2--2-2-0--2-3-3--5--5-5-1--1-1-0--2-3-3

G |: ------------------------------------------------
D |: -------------------------------------------2/4--
A |: ------------------------3-2------------2-2-----5
E |: 5--5-5/10--10-10-3--3-3------5-5-555-3----------

2nd and 3rd verse

G |: ---------------------------------------------------
D |: ---------------------------------------------------
A |: -----------------------------------8-8-8-10-7------
E |: 5--5-5-2-2-2-1-0-0-0-2-3-3--5--5-5------------0-2-3

G |: -------------------------------------------------
D |: --------------------------------------------2/4--
A |: -------5--5-5--------3-3-2-2------------2-2-----5
E |: 5--5-5--------3--3-3----------5-5-555-3----------

chorus

no bass until

when you mess with us.....

G |: -----------------------------
D |: -----------------------------
A |: 3-3-2-2----------------------
E |: --------5-5-3-3-2-0-0-2-0-0-2

outro

riff 1

G |: ---------------------------------------------------
D |: ---------------------------------------------------
A |: 2-2-2-2-5-5-5-5------5--------5--5-5-7-7---7-7--5--
E |: ----------------3---3--2-0--3------------0----0---7

riff 2

G |: ------------------------------------------7--------------------------
D |: ----------------------------------7-5-7-9---------7---------------7-7
A |: 2-4-5-2-5-7-9-5-10-12-14-10-5-7-9-----------5-7/9---7---7---9-9-7----
E |: ------------------------------------------------------0---0----------

riff 3

G |: ---------------------------------------------------------------
D |: ---------------------------------------------------------------
A |: 2-4-5-2-5-7-9-5---------5-7-9-5---------5-7-9-5-7-7---7-7---5--
E |: ----------------3-5-7-3---------3-5-7-3-------------0-----0---7

Riff 1 x 2
Riff 2 x 2
Riff 3
Riff 2 x 2
            
Submit corrections

comments powered by Disqus
↑ Back to top | Radiohead Bass for Karma Police. Lyrics for acoustic guitar and electric guitar. Tablatures and chords are parodies/interpretations of the original songs. You may use it for private study, scholarship, research or language learning purposes only