» » »

Radiohead, Jigsaw Falling Into Place Tabs (ver.3)

Artists:  A B C D E F G H I J K L M N O P Q R S T U V W X Y Z # 

Jigsaw Falling Into Place Tabs (ver.3)

Radiohead Tabs
Rating:
0/5 (0 votes)
Hard to play? Try these video lessons and learn fast.
                (Intro)
e||----------------------------------|
B||----------------------------------|
G||------7-----7---7-----7-----7---7-|
D||----9-----9---------9-----9-------|
A||----------------------------------|
D||--9-----9-----9---9-----9-----9---|


----------------------------------|
----------------------------------|
------7-----7---7-----7-----7---7-|
----9-----9---------9-----9-------|
----------------------------------|
--9-----9-----9---9-----9-----9---|


----------------------------------|
----------------------------------|
------6-----6---6-----6-----6---6-|
----8-----8---------8-----8-------|
----------------------------------|
--8-----8-----8---8-----8-----8---|


 
----------------------------------|
----------------------------------|
------6-----6---6-----4-----4---4-|
----7-----7---------0-----0-------|
----------------------------------|
--0-----0-----0---0-----0-----0---|


----------------------------------|
----------------------------------|
------0-----4---6-----6-----7---7-|
----0-----0---------0-----0-------|
----------------------------------|
--5-----5-----5---4-----4-----4---|


  
-----------------------------------||
-----------------------------------||
------0-----4---6-----6-----7---7-*||
----0-----0---------0-----0-------*||
-----------------------------------||
--5-----5-----5---4-----4-----4----||
            

comments powered by Disqus
↑ Back to top | Radiohead Tabs for Jigsaw Falling Into Place. Lyrics for acoustic guitar and electric guitar. Tablatures and chords are parodies/interpretations of the original songs. You may use it for private study, scholarship, research or language learning purposes only