» » »

Inside My Head Bass tabs (ver.2)

Artists:  A B C D E F G H I J K L M N O P Q R S T U V W X Y Z # 

Inside My Head Bass tabs (ver.2)

Radiohead
Rating:
0/5 (0 votes)

Hard to play? Try these video lessons and learn fast.
                Radiohead
Inside My Head

VERSE

G|-----------------------------------|
D|-----------------------------------|
A|------------3-3-3-----------3-3-3--|
E|--0-0-0-0-0-------5-5-5-5-5--------|

CHORUS

G|-----------------------------------|
D|-----------------------------------|
A|------------0-0-03-035-------------|
E|--0-0-03-035-----------------------|

SOLO

G|-----------------------------------|
D|--2-22-22--------------------------|
A|---------2------24-----------------|
E|----------5-55-5-------------------|
            
Hard to play? Try these video lessons and learn fast. | Correct




comments powered by Disqus
↑ Back to top | Tablatures and chords are parodies/interpretations of the original songs. You may use it for private study, scholarship, research or language learning purposes only