» » »

Radiohead, I Can Bass tabs (ver.1)

Artists:  A B C D E F G H I J K L M N O P Q R S T U V W X Y Z # 

I Can Bass tabs (ver.1)

Radiohead Tabs
Rating:
0/5 (0 votes)
I Can lessons Tabs too difficult? Try these video lessons and learn fast
                Tuning: Standard (E A D G)

Alright I saw there were no tabs out for this song and if even thought it is not the best radiohead song, I tabbed in anyway in the chance someone might appreciate it... alright.

Verse:
G|---------------------------------------------7-7-5-7-5-7||
D|--------------------------------------------------------||
A|---------------2--3---2-3--3-2--5--5-0-5--5-5-----------||
E|-3---3---3---3------------------------------------------||

Verse1:
G|---------------------------------------------------------||
D|----------------------------------------------------5s7s5||
A|---------------2--3---2-3--3-2--5--5-0-5--5-5--5--5------||
E|-3---3---3---3-------------------------------------------||

Pre Chorus:
G|----------------------------------------------||
D|----------------------------------------------||
A|----------------------------------------------||
E|-0--0-0-0---0--0-0-0---8-8-8--7-8--8-8-8--7-8-||

Chorus:
G|-------------------------------------------------------------||
D|----------------------------------------7--7--7--7-----------||
A|-------------2--3--2-3--3-2--7--7--7--7----------------------||
E|-3--3--3--3--------------------------------------------------||

Verse 3:
G|---------------------------------------------7-7-5-7-5-7||
D|--------------------------------------------------------||
A|---------------2--3---2-3--3-2--2--2-0-2-2-2------------||
E|-3---3---3---3------------------------------------------||

Solo:
G|---------------------------------------------||
D|---------------------------------------------||
A|-----------2-2-3-3-3-5s7-7-----3-3-2---------||
E|-3-3-3-3-3-----------------3-3---------------||

Solo1:
G|-------------------------------------------||
D|-------------------------------------------||
A|-----------2-2-3-3-2-3-2-3-2-3-2-----------||
E|3-3-3-3-3----------------------------------||




Order
Verse
Verse1
Pre-Chorus
Chorus
Verse
Verse1
Pre-Chorus
Chorus
Verse
Verse3
Pre-Chorus
Chorus
Solo:3x
Solo1
....
Chorus
            
Submit corrections

comments powered by Disqus
↑ Back to top | Radiohead Bass for I Can. Lyrics for acoustic guitar and electric guitar. Tablatures and chords are parodies/interpretations of the original songs. You may use it for private study, scholarship, research or language learning purposes only