» » »

How To Disappear Completely Bass tabs (ver.1)

Artists:  A B C D E F G H I J K L M N O P Q R S T U V W X Y Z # 

How To Disappear Completely Bass tabs (ver.1)

Radiohead
Rating:
0/5 (0 votes)

Hard to play? Try these video lessons and learn fast.
                (1)
Radiohead
How to Disappear Completely

left is the higher octave - right the lower.  both are played throughout
the song (they're interchangable, really!).  personally, i prefer the 
lower octave, but that's just me.

G------------------------9---|----------------------------------
D--11--7--9--------7--9------|------------------------2---------
A------------7--9------------|---4--0--2--------0--2------------
E----------------------------|------------0--2------------------

In a couple of parts, like when Thom sings: "Yeah, it's gone" and
at the very end of the song, this part is used:: 

G-----------------------------|---------------------------------
D-----------------------------|---------------7-6---------------
A---7-9-9-9-9-9-7-9-9-9-9-9---|---7-7-7-7-7-7-----7---(etc.)----
E-----------------------------|---------------------------------

pretty basic, but really fun!
Please correct if any errors are found, thanks.

i am an amnesiac
            
Hard to play? Try these video lessons and learn fast. | Correct




comments powered by Disqus
↑ Back to top | Tablatures and chords are parodies/interpretations of the original songs. You may use it for private study, scholarship, research or language learning purposes only