» » »

Radiohead, How To Disappear Completely Bass tabs (ver.2)

Artists:  A B C D E F G H I J K L M N O P Q R S T U V W X Y Z # 

How To Disappear Completely Bass tabs (ver.2)

Radiohead Tabs
 Rating:
4/5 (4 votes)
How To Disappear Completely lessons Tabs too difficult? Try these video lessons and learn fast
1
                

As this is an unreleased song, I thought it would be kind of
pointless to try to tab it note for note, since the final version
of the song on the album (if it ever gets on an album) could be
very different. So this is just some basic pieces of the song
1998.


This part (left) repeats for most of the song, sometimes dropping
an octave lower (right).

G------------------------9---|----------------------------------|
D--11--7--9--------7--9------|------------------------2---------|
A------------7--9------------|---4--0--2--------0--2------------|
E----------------------------|------------0--2------------------|


There are only a couple variations, one of them being this
(and its equivalent on the lower octave... figure it out):

G---------------------11-9--11-9------------------------9-------|
D--11--7--9--------7--------------11--7--9--------7--9----------|
A------------7--9---------------------------7--9----------------|
E---------------------------------------------------------------|


Then in a couple parts of the song, like after Thom sings "Yeah,
it's gone" and at the end of the song, you just play the bit on
the left there, and the part on the right gets thrown in a couple
times too.

G-----------------------------|---------------------------------|
D-----------------------------|---------------7-6---------------|
A---7-9-9-9-9-9-7-9-9-9-9-9---|---7-7-7-7-7-7-----7---(etc.)----|
E-----------------------------|---------------------------------|


There you have it. This is the first tab I've ever written (not
counting handwritten stuff on my own), but I think it's about as
accurate as it gets. Hope you like it - it's an excellent song.
            
Submit corrections

comments powered by Disqus
↑ Back to top | Radiohead Bass for How To Disappear Completely. Lyrics for acoustic guitar and electric guitar. 1 Tablatures and chords are parodies/interpretations of the original songs. You may use it for private study, scholarship, research or language learning purposes only