» » »

Radiohead, High And Dry Chords (ver.4)

Artists:  A B C D E F G H I J K L M N O P Q R S T U V W X Y Z # 

High And Dry Chords (ver.4)

Radiohead Tabs
Rating:
0/5 (0 votes)
High And Dry lessons Tabs too difficult? Try these video lessons and learn fast
                Radiohead
High And Dry [Acoustic]
The Bends -- 1995

These are the chords for Radiohead's "High And Dry" off The Bends album. Enjoy!

Standard Tuning
*Chords are listed at end of song

Riff 1
e|-------------------------------------------------|
B|-------------------------------------------------|
G|--13-13-13--11-11-11-11-11--13-13-13--9-9-9-9-9--|
D|---x--x--x---x--x--x--x--x---x--x--x--x-x-x-x-x--|
A|--11-11-11---9--9--9--9--9--11-11-11--7-7-7-7-7--|
E|-------------------------------------------------|

Riff 1 [Cont.]
e|----------------------------|
B|----------------------------|
G|--9-9-9-9-9-9-9-9--9-9-9-9--|
D|--9-9-9-9-9-9-9-9--9-9-9-9--|
A|--7-7-7-7-7-7-7-7--7-7-7-7--|
E|--0----------------0--------|

Intro 
Riff 1 [2x]

Verse 1
F#m11  
Two jumps in a week
          Asus2                               E   Esus4  E
I bet you think that's pretty clever don't you boy
F#m11
Flying on your motorcycle
Asus2                              E    Esus4  E   
Watching all the ground beneath you drop
      F#m11
You'd kill yourself for recognition
Asus2                      E    Esus4  E
Kill yourself to never ever stop
    F#m11
You broke another mirror
       Asus2                         E   Esus4  E
You're turning into something you are not

Chorus
               F#m11  Asus2
Don't leave me high 
               E
Don't leave me dry
               F#m11  Asus2
Don't leave me high 
               E
Don't leave me dry

Interlude - Riff 1 [1x]

Verse 2
F#m11
Drying up in conversation
Asus2                         E    Esus4  E
You will be the one who cannot talk
F#m11
All your insides fall to pieces
Asus2                                E              Esus4  E  
You just sit there wishing you could still make love
F#m11
They're the ones who'll hate you
         Asus2                          E         Esus4  E
When you think you've got the world all sussed out
F#m11
They're the ones who'll spit at you
    Asus2                E       Esus4  E
You will be the one screaming out

Chorus

Interlude 2 - F#m11 Asus2  E  [2x]

Bridge
         F#m11
It's the best thing that you ever had
    Asus 2                         E  
The best thing that you ever, ever had
         F#m11                 
It's the best thing that you ever had
    Asus2                           E    Esus4  E
The best thing you ever had has gone away

Chorus - [2x]

*Chords Used              Intro Octaves   
    F#m11  Asus2  E  Esus4  G#  F#  E  
e|-----------0----0----0----------------|
B|-----0-----0----0----0----------------|
G|-----2-----2----1----2----13--11--9---|
D|-----2-----2----2----2-----x---x--x---|
A|-----x-----0----2----2----11---9--7---|
E|-----2----------0----0-----------(0)--|
            

comments powered by Disqus
↑ Back to top | Radiohead Chords for High And Dry. Lyrics for acoustic guitar and electric guitar. Tablatures and chords are parodies/interpretations of the original songs. You may use it for private study, scholarship, research or language learning purposes only