» » »

Give Up The Ghost Tabs (ver.1)

Artists:  A B C D E F G H I J K L M N O P Q R S T U V W X Y Z # 

Give Up The Ghost Tabs (ver.1)

Radiohead
Rating:
0/5 (0 votes)

Hard to play? Try these video lessons and learn fast.
                Give up the Ghost


D
Don’t haunt me 
Am
Don't hurt me


D                      Am
Gather up the lost and sold
          D               Am
Into your arms, into your arms
D                 Am
Gather up the pitiful
          D               Am
Into your arms, into your arms
D                 Am
What seems impossible
          D               Am
Into your arms, into your arms
D                     Am
I think I have had my fill
          D               Am
Into your arms, into your arms
          D               Am
Into your arms, into your arms


Bm                           Fmaj7   Cmaj7
I think I should give up the ghost
          D               Am
Into your arms, into your arms
          D               Am
Into your arms, into your arms
          D               Am
Into your arms, into your arms
          D               Am
Into your arms, into your arms





Throughout the song, guitar 2 is mostly panned right, guitar 3 to the left.
Sometimes they are playing the same thing and sometimes they aren't.
Both guitars have rhythmic variations on what is tabbed, and sometimes some
notes are missed.


Verse



Main guitar (in drop D)

   D                     Am7
e|-x---2------0-----3----x-----0-----3-----0------|
b|-x---3------3-----3----x-----1-----3-----3------|
g|-x---2------2-----2----x-----0-----0-----0------|
d|------------------------------------------------|
a|-----------------------0------------------------|
D|(0)---------------------------------------------|

This riff is played once in the intro and then every now and then later.

The below riff is repeated for almost the whole song.

   D                     Am7
e|-x---2------0-----3----x-----0-----3-----0------|
b|-x---3------3-----3----x-----1-----1-----1------|
g|-x---2------2-----2----x-----0-----0-----0------|
d|------------------------------------------------|
a|-----------------------0------------------------|
D|(0)---------------------------------------------|


Guitar 2
   D
e|------------------------------------------------------------------|
b|------------------------------------------------------------------|
g|---------------7---------------7---------------7------------------|
d|-----------7---------------7---------------7---------------7------|
a|---------5---5-------5---5---5-------5---5---5-------5---5---5----|
e|------------------------------------------------------------------|
   Am
e|------------------------------------------------------------------|
b|------------------------------------------------------------------|
g|---------------5---------------5---------------5------------------|
d|-----------7---------------7---------------7---------------7---7--|
a|-7---7---7---7-------7---7---7-------7---7---7-------7---7---7----|
e|------------------------------------------------------------------|

There are variations on this. Sometimes the chord picking continutes into the next chord.
And sometimes one of the A minor chords is played as

e|------------|
b|------------|
g|-------0----|
d|---7--------|
a|-7---7------|
c|------------|


Guitar 3
   D
e|----------------------------------------------------------------|
b|----------------------------------------------------------------|
g|----------------------------------------------------------------|
d|-------4---4---4------4---4---4------4---4---4------4---4---4---|
a|---------0---0---0------0---0---0------0---0---0------0---0---0-|
e|----------------------------------------------------------------|
   Am
e|------------------------------------------------------------------|
b|------------------------------------------------------------------|
g|------------------------------------------------------------------|
d|-------10--10--10-----10--10--10-----10--10--10-----10--10--10----|
a|---------0---0---0------0---0---0------0---0---0------0---0---0---|
e|------------------------------------------------------------------|
   D
e|----------------------------------------------------------------|
b|----------------------------------------------------------------|
g|----------------------------------------------------------------|
d|-------4---4---4------4---4---4------4---4---4------4---4---4---|
a|---------0---0---0------0---0---0------0---0---0------0---0---0-|
e|----------------------------------------------------------------|
   Am
e|------------------------------------------------------------------|
b|------------------------------------------------------------------|
g|------------------------------------------------------------------|
d|-------10--10--10-----10--10--10-----10--10--10-----10--10--10----|
a|---------0---0---0------0---0---0------0---0---0------0---0---0---|
e|------------------------------------------------------------------|
   D
e|----------------------------------------------------------------|
b|----------------------------------------------------------------|
g|----------------------------------------------------------------|
d|-------4---4---4------4---4---4------4---4---4------4---4---4---|
a|---------0---0---0------0---0---0------0---0---0------0---0---0-|
e|----------------------------------------------------------------|
   Am
e|------------------------------------------------------------------|
b|------------------------------------------------------------------|
g|------------------------------------------------------------------|
d|-------10--10--10-----10--10--10-----10--7---7------7---7---7-----|
a|---------0---0---0------0---0---0------0---0---0------0---0---0---|
e|------------------------------------------------------------------|
   D
e|----------------------------------------------------------------|
b|----------------------------------------------------------------|
g|----------------------------------------------------------------|
d|-------7---7---7------7---7---7------7---7---7------7---7---7---|
a|---------0---0---0------0---0---0------0---0---0------0---0---0-|
e|----------------------------------------------------------------|
   Am
e|----------------------------------------------------------------|
b|----------------------------------------------------------------|
g|----------------------------------------------------------------|
d|----------------------------------------------------------------|
a|-------3---3---3------3---3---3------3---3---3------3---3---3---|
e|---------5---5---5------5---5---5------5---5---5------5---5---5-|
   D
e|------------------------------------------------------------------|
b|------------------------------------------------------------------|
g|---------------7---------------7---------------7------------------|
d|-----------7---------------7---------------7---------------5---7--|
a|-----5---5---5-------5---5---5-------5---5---5-------5---5---5----|
e|------------------------------------------------------------------|
   Am
e|------------------------------------------------------------------|
b|------------------------------------------------------------------|
g|---------------5---------------5---------------5------------------|
d|-----------7---------------7---------------7---------------5---7--|
a|-7---7---7---7-------7---7---7-------7---7---7-------7---7---7----|
e|------------------------------------------------------------------|
   D
e|----------------------------------------------------------------|
b|----------------------------------------------------------------|
g|----------------------------------------------------------------|
d|-------7---7---7------7---7---7------7---7---7------7---7---7---|
a|---------0---0---0------0---0---0------0---0---0------0---0---0-|
e|----------------------------------------------------------------|
   Am
e|----------------------------------------------------------------|
b|----------------------------------------------------------------|
g|----------------------------------------------------------------|
d|---7---7---7---7------7---7---7------7---7---7------7---7---7---|
a|-----0---0---0---0------0---0---0------0---0---0------0---0---0-|
e|----------------------------------------------------------------|
   D
e|----------------------------------------------------------------|
b|----------------------------------------------------------------|
g|----------------------------------------------------------------|
d|-------7---7---7------7---7---7------7---7---7------7---7---7---|
a|---------0---0---0------0---0---0------0---0---0------0---0---0-|
e|----------------------------------------------------------------|
   Am
e|----------------------------------------------------------------|
b|----------------------------------------------------------------|
g|----------------------------------------------------------------|
d|-------7---7---5-7----7---7---5-7----7---7---5-7----7---7---5-7-|
a|---------0---0----------0---0----------0---0----------0---0-----|
e|----------------------------------------------------------------|
   D
e|----------------------------------------------------------------|
b|----------------------------------------------------------------|
g|----------------------------------------------------------------|
d|-------7---7---5-7----7---7---5-7----7---7---5-7----7---7---5-7-|
a|---------0---0----------0---0----------0---0----------0---0-----|
e|----------------------------------------------------------------|
   Am
e|----------------------------------------------------------------|
b|----------------------------------------------------------------|
g|----------------------------------------------------------------|
d|-------10--10--10-----10--10--10-----10--10--10---9---9---9---7-|
a|---------0---0---0------0---0---0------0---0---0----0---0---0---|
e|----------------------------------------------------------------|







'Chorus'

Main guitar
   Bm7                 Fmaj7     C
e|------2----0----3--------0----------0------------|
b|------3----3----3--------1----------1------------|
g|------2----2----2--------2----------0------------|
d|-------------------------3-----------------------|
a|-2-----------------------------3-----------------|
D|---------------------3---------------------------|

Guitar 2
   Bm
e|------------------------------------------------------------------|
b|------------------------------------------------------------------|
g|-7-------------7---------------7---------------7------------------|
d|-----------9---------------9---------------9----------------------|
a|-----9---9---9-------9---9---9-------9---9---9-------9---9--------|
e|------------------------------------------------------------------|
   Fmaj7                             Cmaj7
e|------------------------------------------------------------------|
b|-10----------------10--------------5------------------5---5-------|
g|-----9-----------------9---------------4----------------------4---|
d|--------10------10--------10-\-------------5--------5-------------|
a|--------------8-----------------------------------3---------------|
e|------------------------------------------------------------------|


Guitar 3

   Bm
e|------------------------------------------------------------------|
b|------------------------------------------------------------------|
g|-7-------------7---------------7---------------7------------------|
d|-----------9---------------9---------------9----------------------|
a|-----9---9---9-------9---9---9-------9---9---9-------9---9--------|
e|------------------------------------------------------------------|
   Fmaj7                             Cmaj7
e|-----------------------------------7-------------------7------------|
b|-10----------------10------------------5-------------------5--------|
g|-----9-----------------9-------------------5--------5-----------5---|
d|--------10------10--------10-\--------------------5-----------------|
a|--------------8-----------------------------------------------------|
e|--------------------------------------------------------------------|





Back to verse


Main guitar and Guitar 2 as before.


Guitar 3
   D
e|------------------------------------------------------------------|
b|------------------------------------------------------------------|
g|------------------------------------------------------------------|
d|------------------------------------------------------------------|
a|-----5---5---5------5---5---5------5---5---5------5---5---5-------|
e|-------5---5---5------5---5---5------5---5---5------5---5---5-----|
   Am
e|----------------------------------------------------------------|
b|----------------------------------------------------------------|
g|----------------------------------------------------------------|
d|----------------------------------------------------------------|
a|-------3---3---3------3---3---3------3---3---3------3---3---3---|
e|---------5---5---5------5---5---5------5---5---5------5---5---5-|
   D
e|----------------------------------------------------------------|
b|----------------------------------------------------------------|
g|----------------------------------------------------------------|
d|-------4---4---4------4---4---4------4---4---4------4---4---4---|
a|---------0---0---0------0---0---0------0---0---0------0---0---0-|
e|----------------------------------------------------------------|
   Am
e|----------------------------------------------------------------|
b|----------------------------------------------------------------|
g|----------------------------------------------------------------|
d|----------------------------------------------------------------|
a|-------3---3---3------3---3---3------3---3---3------3---3---3---|
e|---------5---5---5------5---5---5------5---5---5------5---5---5-|
   D
e|----------------------------------------------------------------|
b|----------------------------------------------------------------|
g|----------------------------------------------------------------|
d|-------4---4---4------4---4---4------4---4---4------4---4---4---|
a|---------0---0---0------0---0---0------0---0---0------0---0---0-|
e|----------------------------------------------------------------|
   Am
e|----------------------------------------------------------------|
b|----------------------------------------------------------------|
g|----------------------------------------------------------------|
d|----------------------------------------------------------------|
a|-------3---3---3------3---3---3------3---3---3------3---3---3---|
e|---------5---5---5------5---5---5------5---5---5------5---5---5-|
   D
e|------------------------------------------------------------------|
b|------------------------------------------------------------------|
g|------------------------------------------------------------------|
d|------------------------------------------------------------------|
a|-----5---5---5------5---5---5------5---5---5------5---5---5-------|
e|-------5---5---5------5---5---5------5---5---5------5---5---5-----|
   Am
e|----------------------------------------------------------------|
b|----------------------------------------------------------------|
g|----------------------------------------------------------------|
d|----------------------------------------------------------------|
a|-------3---3---3------3---3---3------3---3---3------3---3---3---|
e|---------5---5---5------5---5---5------5---5---5------5---5---5-|
   D
e|------------------------------------------------------------------|
b|------------------------------------------------------------------|
g|------------------------------------------------------------------|
d|------------------------------------------------------------------|
a|-----5---5---5------5---5---5------5---5---5------5---5---5-------|
e|-------5---5---5------5---5---5------5---5---5------5---5---5-----|
   Am
e|----------------------------------------------------------------|
b|----------------------------------------------------------------|
g|----------------------------------------------------------------|
d|----------------------------------------------------------------|
a|-------3---3---3------3---3---3------7---7---7------7---7---7---|
e|---------5---5---5------5---5---5------5---5---5------5---5---5-|
   D
e|------------------------------------------------------------------|
b|------------------------------------------------------------------|
g|------------------------------------------------------------------|
d|------------------------------------------------------------------|
a|-----5---5---5------5---5---5------5---5---5------5---5---5-------|
e|-------5---5---5------5---5---5------5---5---5------5---5---5-----|
   Am
e|------------------------------------------------------------------|
b|------------------------------------------------------------------|
g|------------------------------------------------------------------|
d|------------------------------------------------------------------|
a|---------5------5------5-------5-------5--------5-------5-------5-|
e|-------5------5------5------5------5---------5-------5-------5----|



Cheers.
            
Hard to play? Try these video lessons and learn fast. | Correct




comments powered by Disqus
↑ Back to top | Tablatures and chords are parodies/interpretations of the original songs. You may use it for private study, scholarship, research or language learning purposes only