» » »

Fog Bass tabs (ver.2)

Artists:  A B C D E F G H I J K L M N O P Q R S T U V W X Y Z # 

Fog Bass tabs (ver.2)

Radiohead
Rating:
0/5 (0 votes)

Tabs too difficult? Try these video lessons and learn fast.
                Not many people may know this b-side, but it's a great song. Slide a lot
and let the notes ring. The structure is strange, you'll have to listen to
the track to nail it, but the rhythm is the same through the song, so it's not
that hard. Here goes...

G|--------------------------------------------------------------------------|
D|--------------------------------------------------------------------------|
A|--------------------------------------------------------------------------|
E|-10--10--10-10--10--10-7--7--7-7--7--75--5--5-5--5--5-0h5--5--5-5--5--5---|

G--------------------------------------------------------------------------|
D--------------------------------------------------------------------------|
A--------------------------------------------------------------------------|
E-0h3--3--3-3--3--3/6--6--6-6--6--6/10--10--10-10--10--107--7--7-7--7--7---|

G-------------------------------------------------------------------------|
D-------------------------------------------------------------------------|
A-------------------------------------------------------------------------|
E-0h5--5--5-5--5--5-0h5--5--5-5--5--5-0h5--5--5-5--5--5-0h5--5--5-5--5--5-|
                                     ^*

Okay, now you go back to the beginning and repeat. There are variations,
I'll include the ending part, but near the middle at the *, goes
into this...

G|-------------------------------------------------------------------|
D|-------------------------------------------------------------------|
A|-------------------------------------------------------------------|
E|-0h3--3--3-3--3--3-3--3--3-3--3--3/5--5--5-5--5--5-5--5--5-5--5--5-|
(played twice, then into the ending)

G|--------------------------------------------|
D|--------------------------------------------|
A|--------------------------------------------|
E|-10--10--10-12--14--147--7--0h5--7--5--7----| repeat until end.

Again, plenty of room to fiddle around with on your own. Later...
            
Tabs too difficult? Try these video lessons and learn fast.




comments powered by Disqus
↑ Back to top | Tablatures and chords are parodies/interpretations of the original songs. You may use it for private study, scholarship, research or language learning purposes only