>
 >
Fog

Fog Bass Tabs

Radiohead - Fog chords, tabs, tablatures, lyrics

Guitar lessons | Add/correct | Request | Top 50 tabs Artists:  A B C D E F G H I J K L M N O P Q R S T U V W X Y Z 0-9

Fog Bass Tabs – Radiohead

CD, Sheet music, Poster

Do you like Fog? Share with your friends now
Bass TabsBass Tabs v2
Not many people may know this b-side, but it's a great song. Slide a lot
and let the notes ring. The structure is strange, you'll have to listen to
the track to nail it, but the rhythm is the same through the song, so it's not
that hard. Here goes...

G|-------------------------------------------------------------------------
D|-------------------------------------------------------------------------
A|-------------------------------------------------------------------------
E|-10--10--10-10--10--10\7--7--7-7--7--7\5--5--5-5--5--5-0h5--5--5-5--5--5-

G-------------------------------------------------------------------------
D-------------------------------------------------------------------------
A-------------------------------------------------------------------------
E-0h3--3--3-3--3--3/6--6--6-6--6--6/10--10--10-10--10--10\7--7--7-7--7--7-

G-------------------------------------------------------------------------|
D-------------------------------------------------------------------------|
A-------------------------------------------------------------------------|
E-0h5--5--5-5--5--5-0h5--5--5-5--5--5-0h5--5--5-5--5--5-0h5--5--5-5--5--5-|
                                     ^*

Okay, now you go back to the beginning and repeat. There are variations,
I'll include the ending part, but near the middle at the *, goes
into this...

G|-------------------------------------------------------------------|
D|-------------------------------------------------------------------|
A|-------------------------------------------------------------------|
E|-0h3--3--3-3--3--3-3--3--3-3--3--3/5--5--5-5--5--5-5--5--5-5--5--5-|
(played twice, then into the ending)

G|------------------------------------------|
D|------------------------------------------|
A|------------------------------------------|
E|-10--10--10-12--14--14\7--7--0h5--7--5--7-| repeat until end.

Again, plenty of room to fiddle around with on your own. Later...





Comments


Popular Radiohead tabs & chords
Airbag Bass Tabs
My Iron Lung Bass Tabs
Talk Show Host 3 Bass Tabs
After The Goldrush Chords
Knives Out Chords
(Nice Dream) Tabs
Go Slowly 4 Tabs
Killer Cars Tabs
Polyethylene Parts 1 And Tabs
Climbing Up The Walls Ukulele


Song lyrics



↑ Back to top | Tablatures and chords are parodies/interpretations of the original songs. You may use it for private study, scholarship, research or language learning purposes only
© 2014 AZChords.com Contact us | Privacy policy | DMCA | Add/correct tabs | Request tabs | Top 50 tabs