» » »

Radiohead, Fitter Happier Tabs (ver.1)

Artists:  A B C D E F G H I J K L M N O P Q R S T U V W X Y Z # 

Fitter Happier Tabs (ver.1)

Radiohead Tabs
 Rating:
4/5 (4 votes)
Fitter  Happier lessons Tabs too difficult? Try these video lessons and learn fast
1
                I thought this song is so stupidly weird that i'd work out the piano parts

---|------------------8|-6----------------6-|-6---------------------|------
---|--------------------|---------------------|------------------------|------
-3-|--6--5--6-5-6--- |-5--6--5--6-5-----|-5-5-6-5-5 -6-5-6-5-|------
-2-|-------------------|---------------------|-7----------------------|------
---|--------------------|-----------------8--|------------------------|------
---|--------------------|---------------------|------------------------|------
  Adim                  Bbm                   Adim                            

--6-------------------|-6---------- -----8-|-6--------------- -|------------
----------------------|---------------------|--------------------|------------
--5-5-6-5-6-5-6-5-|-6--5--6--5-6-5-6|-5-6-5--6-5-6-5-|------------
--7-------------------|-8------------------|-7----------------  |------------
----------------------|---------------------|--------------------|------------
----------------------|---------------------|--------------------|------------
 F                     Gm                                                     

-6-------------------|-6-----------------8-|-6---------------6-|------------
---------------------|-------------------- -|---------------------|------------
-5-5-6-5-6-5-6-5-|-7-7-8-7--8-7-8---|-7-7-8-7-8-7-8---|------------
-7-------------------|-5-------------------|-5------------------|------------
-8-------------------|---------------------|---------------------|------------
---------------------|---------------------|---------------------|------------
 F#dim                                      Gm                                

-5-----------------6-|-5-----------------|-6-----------------6--------------
---------------------|---------------------|----------------------------------
-5-5-7-5-7-5-7-   |-5-5-7-5-8-7-5-7-|-7--7--8--7--8-7-8----------------
-7-------------------|-7------------------|-5--------------------------------
---------------------|---------------------|----------------------------------
---------------------|---------------------|----------------------------------
                       Adim       rit         Gm  a tempo                     

-6-----------------6-|-5----------------6-|-6-------------------|-----------
-------------------- -|----------------------|8------------------|-----------
-7--7-8-7-8-7-8---|-5--7--5--7-8-7-5-|-7-5-7-5-7-8-7-5-|-----------
-5-------------------|----------------------|-5--------------- ---|-----------
---------------------|----------------------|---------------------|-----------
---------------------|----------------------|---------------------|-----------
 Bbm                                                                          

-6------------------8-|-6-----------------------------------------------------
-6--------------------|-------------------------------------------------------
-6--5--6--5---6-5-6|-6-----------------------------------------------------
-8--------------------|-------------------------------------------------------
------------8---------|-------------------------------------------------------
---------------------- |-------------------------------------------------------
            
Submit corrections

comments powered by Disqus
↑ Back to top | Radiohead Tabs for Fitter Happier. Lyrics for acoustic guitar and electric guitar. 1 Tablatures and chords are parodies/interpretations of the original songs. You may use it for private study, scholarship, research or language learning purposes only