» » »

Radiohead, Fake Plastic Trees Chords (ver.8)

Artists:  A B C D E F G H I J K L M N O P Q R S T U V W X Y Z # 

Fake Plastic Trees Chords (ver.8)

Radiohead Tabs
 Rating:
2.3/5 (8 votes)
Fake Plastic Trees lessons Tabs too difficult? Try these video lessons and learn fast
                -------------------------------------------------------------------------------
-------------------------------------------------------------------------------

Tuning: std

	(1st verse)
e|----0--(0)---0---0---0---0---0------|
B|----2--(3)---0---0---3---2---3------|
G|----2--(2)---2---1---2---2---2------|  X2
D|----2--(2)---2---2---0---2---0------|
A|----0--(0)--(4)--2-------0----------|
E|-------------2---0------------------|
Her green plastic watering can 
For her fake chinese rubber plant
In the fake plastic earth
That she bought from a rubber man 
In a town full of rubber plans
To get rid of itself


	(1st Chorus)
e|----2--(0)---0---2---0---|
B|----3--(3)---2---3---2---|
G|----4--(4)---2---4---2---|  
D|----4--(4)---2---4---2---|
A|----2--(2)---0---2---0---|
E|-------------------------|
It wears her out   It wears her out
It wears her out   It wears her out


	(2nd verse) 
e|----0--(0)---0---0---0-(0)---0---0---|
B|----2--(0)---0---0---3-(3)---2---3---|
G|----2--(2)---2---1---2-(1)---2---2---|  X2
D|----2--(2)---2---2---0-(0)---2---0---|
A|----0--(0)---4---2-----------0-------|
E|-------------2---0-------------------|
She lives with a broken man 
A cracked polystyrene  man 
Who just crumbles and burns 
He used to do surgery
For girls in the eight  -  ies 
But gravity always wins
 

	(2nd Chorus) 
e|----0---0---0---0---0---|
B|----0---0---0---0---0---|
G|----7---6---7---6---6---|  
D|----9---7---9---7---7---|
A|----9---7---9---7---7---|
E|----7---5---7---5--(0)--|
And it wears him out  It wears him out
And it wears him out  It we-ear  -  err  -  ers


	(3rd verse) 
e|----0------(0)---0---0---0-(0)--0---0---|
B|----0-(p5)-(0)---0---0---3-(2)--0---3---|
G|----6------(6)---2---4---2-(2)--6---2---|  X2
D|----7------(7)---4---6---0-(0)--7---0---|
A|----7------(7)---4---7----------7-------|
E|----5------(0)---2---0----------5-------|
she looks like the real thing
She tastes like the real thing
My fake plastic love
But I can't help the feeling
I could blow through the ceil  -  ing 
If I just turn and run


	(3rd Chorus) 
e|----0---0---0---0---0---|
B|----0---0---0---0---0---|
G|----7---6---7---6---6---|  
D|----9---7---9---7---7---|
A|----9---7---9---7---7---|
E|----7---5---7---5--(0)--|
And it wears me out  It wears me out
And it wears me out  It wears me out


	(outro)
e|----2--(0)---0--(0)--2---0---|
B|----3--(3)---2--(0)--3---2---|
G|----4--(4)---2--(2)--4---2---|  
D|----4--(4)---2--(2)--4---2---|
A|----2--(2)---0--(0)--2---0---|
E|-----------------------------|
And if I could be who you wanted
If I could be who you wanted 
All the time    All the time



| /  slide up
| \  slide down
| H  hammer-on
| p  pull-off
| ~  vibrato
| +  harmonic
| x  Mute note
===============================================================================
            
Submit corrections

comments powered by Disqus
↑ Back to top | Radiohead Chords for Fake Plastic Trees. Lyrics for acoustic guitar and electric guitar. Tablatures and chords are parodies/interpretations of the original songs. You may use it for private study, scholarship, research or language learning purposes only