» » »

Faithless Wonder Boy Bass tabs (ver.1)

Artists:  A B C D E F G H I J K L M N O P Q R S T U V W X Y Z # 

Faithless Wonder Boy Bass tabs (ver.1)

Radiohead
Rating:
0/5 (0 votes)
Tabs too difficult? Try these video lessons and learn fast.
                Verse:
G|--------------------------------------------------------------------|
D|-0-0----------0----2-0-0----------------0-0--5-5--------------------|
A|---------0-0-----0--------------------------------------------------|
E|-----3-3-----------------3-3-5-7-5-3-0------------5--3--0--7/3-3\10-|

Chorus and Outro:
G|--------------------|
D|--------------------|
A|--------------------|
E|-00000000--33333333-|

G|---------------------------|
D|---------------------------|
A|-2-2-0-0-------------------|
E|---------3-3-2-2-0--0--2-3-|
            
Tabs too difficult? Try these video lessons and learn fast.


comments powered by Disqus
↑ Back to top | Tablatures and chords are parodies/interpretations of the original songs. You may use it for private study, scholarship, research or language learning purposes only