» » »

Exit Song For A Film Tabs (ver.1)

Artists:  A B C D E F G H I J K L M N O P Q R S T U V W X Y Z # 

Exit Song For A Film Tabs (ver.1)

Radiohead
Rating:
0/5 (0 votes)

Hard to play? Try these video lessons and learn fast.
                guitar is tuned standard
capo 2nd fret
strumming without pick
chords are relative to the capoed fret 

intro :  Am  Asus2 Asus4 Am


chords

Am        x 0 2 2 1 0
E         0 2 2 1 0 0
C/G       3 3 2 0 1 0
F#/Dsus2  2 x 0 2 3 0
F/Dmsus2  1 x 0 2 3 0
Asus4     x 0 2 2 3 0
Asus2     x 0 2 2 0 0
Gm4       3 x 0 3 1 3
F#mb4     2 x 0 2 1 2
B         x 2 4 4 4(2)
F         1 3 3 2 1 1


this should be pretty easy to understand. for the strumming 
style listen to the record. thom is using an odd one, so feel 
free to create your own.

Am              E
wake from your sleep
C/G                F#/Dsus2
the drying of your tears
Am          E       Asus4  A
today we escape we escape

Am               E
pack and get dressed
C/G           F#/Dsus2   F/Dmsus2
before your father hears us
Am          E           Asus4  A
before all hell breaks loose

Gm4           F#mb4
breathe keep breathing
Am   Asus2   Asus4  C/G  E
don´t lose your nerve
Gm4           F#mb4
breathe keep breathing
Am   Asus2   Asus4  C/G  E
I can´t do this alone

Am         E  
sing us a song
  C/G       F#/Dsus2  F/Dmsus2
a song to keep us warm
Am              E
there´s such a chill
Asus4   A
such a chill

Am        B
you can laugh
      E         F
your spineless laugh
               Bb         
we hope your rules and
E
wisdom choke you

Am          E
now we are one
   C/G          F#/Dsus2  F/Dmsus2  
in everlasting peace
    Am            E             Asus4     A
we hope that you choke that you choke
    Am            E             Asus4     A
we hope that you choke that you choke
    Am            E             Asus4     A
we hope that you choke that you choke
                            or 
Capo on 2nd fret.

Chords:( these are played with the capo as the nut donating the 0)
          EADGBe
Bm:       002210
Bsus2:    002200
Bsus4:    002230
F#:       022100
D/A:      332010
Emadd9G#: 2x0230
Emadd9G:  1x0230
B:        002220
Am11:     3x0313
E7/G#:    2x0212
C#:       x2444x
G:        133210 (bass note an G and C are done using the thumb) 
C:        x13331
F#sus4:   022200

Intro:
 [---------- x2 --------------------] Then play first half twice
  Bm                       Bsus2 Bsus4
e---0--0--0--0-----0--0--0--0-0-0-0-
B---1--1--1--1-----1--1--1--0-0-0-3-
G---2--2--2--2-----2--2--2--2-2-2-2-
D---2--2--2--2-----2--2--2--2-2-2-2-
A-0-------------0-------------------
E-0-------------0-------------------

Verse:

Bm              F#
Wake, from your sleep,
    D/A           Emadd9G#
Your drying up your tears   
Bm          F#          Bsus4     B
Today, we escape, we escape.

Bm           F#
Pack and get dressed,
D?                Emadd9G# Emadd9G
Before you father hears    us,
Bm         F#          Bsus4     B
Before all hell breaks loose.

(Same for each verse)

Chorus(if it is the chorus):

Am11           E7/G#
Breathe, keep breathing,
Bsus2  Bm  Bsus2  Bsus4  Bm    F#sus4
don't lose,      your nerve
Am11            E7/G#
breathe, keep breathing,
Bsus2      Bm   Bsus2 Bsus4 Bm       F#sus4   F# 
I can't do this       alone.


Diff:
Bm          C#
And you can laugh 
F#          G
A spineless laugh
 G           C         F#
We hope your rules and wisdom choke you.
Bm             F#
And now we are one 
D/A            Emadd9G# Emadd9G
In everlasting pea- -- -eace
Bm               F#             Bsus4    B
We hope that you choke that you choke.
Bm               F#             Bsus4    B
We hope that you choke that you choke.
Bm               F#             Bsus4    B
We hope that you choke that you choke.

The strum pattern is pretty easy to work out and it varies throughout the song
so there is no real point in tabbing out everything.

(The following is all trem. picking with chorus.)(These are the actual 
notes played and are not adjusted due to the capo)

e-------19--21--------------18---19---15--------15-----------20-19-18----
B--19------------21---17-------------------15------15-17-20------------19
G------------------------------------------------------------------------
D------------------------------------------------------------------------
A------------------------------------------------------------------------
E------------------------------------------------------------------------
And you can laugh    A spineless laugh   We hope your  rules  and wis-dom   

e-16---18------19---20-19-18-----17-------19--17--15-----14--------------
B-----------------------------19-----------------------------------------
G------------------------------------------------------------------------
D------------------------------------------------------------------------
A------------------------------------------------------------------------
E------------------------------------------------------------------------
 Choke you and now we are one in ever-lasting pea-ece We hope that you

e---------------12-----11----10-------------9----------------------------
B-14-------------------------------------------------------11--------12--
G------------------------------------------------------------------------
A------------------------------------------------------------------------
D------------------------------------------------------------------------
E------------------------------------------------------------------------
 choke  that you choke.    We hope that you choke that you choke. 

-Steven McGovern
            
Hard to play? Try these video lessons and learn fast. | Correct




comments powered by Disqus
↑ Back to top | Tablatures and chords are parodies/interpretations of the original songs. You may use it for private study, scholarship, research or language learning purposes only