» » »

Exit Music. Trem Picked High Bits Tabs (ver.1)

Artists:  A B C D E F G H I J K L M N O P Q R S T U V W X Y Z # 

Exit Music. Trem Picked High Bits Tabs (ver.1)

Radiohead
Rating:
0/5 (0 votes)

Hard to play? Try these video lessons and learn fast.
                These bits at the end were missing from an other 
version of this song so i did them for completeness.
These parts start at "you can laugh"
pick as quick as you can on all notes.

------19--|-21-------|-----18--|-19--15--|-----15----|-------20-19-|----------
-19-------|------21--|-17------|---------|-15-----15-|-17-20-------|----------
----------|----------|---------|---------|-----------|-------------|----------
----------|----------|---------|---------|-----------|-------------|----------
----------|----------|---------|---------|-----------|-------------|----------
----------|----------|---------|---------|-----------|-------------|----------
                                                                              

-18-------|-16--18---|-19--21-19-|-18------|-17----19|-17---15--|-14--|-------
-----19---|----------|-----------|------19-|---------|----------|-----|-------
----------|----------|-----------|---------|---------|----------|-----|-------
----------|----------|-----------|---------|---------|----------|-----|-------
----------|----------|-----------|---------|---------|----------|-----|-------
----------|----------|-----------|---------|---------|----------|-----|-------
                                                                              

-------|-12--|-11--|-10--|-9--|-----|-----|-----------------------------------
-14----|-----|-----|-----|----|-11--|-12--|-----------------------------------
-------|-----|-----|-----|----|-----|-----|-----------------------------------
-------|-----|-----|-----|----|-----|-----|-----------------------------------
-------|-----|-----|-----|----|-----|-----|-----------------------------------
-------|-----|-----|-----|----|-----|-----|-----------------------------------
            
Hard to play? Try these video lessons and learn fast. | Correct




comments powered by Disqus
↑ Back to top | Tablatures and chords are parodies/interpretations of the original songs. You may use it for private study, scholarship, research or language learning purposes only