» » »

Radiohead, Exit Music (For A Film) Bass tabs (ver.1)

Artists:  A B C D E F G H I J K L M N O P Q R S T U V W X Y Z # 

Exit Music (For A Film) Bass tabs (ver.1)

Radiohead Tabs
 Rating:
4/5 (4 votes)
Exit Music (For A Film) lessons Tabs too difficult? Try these video lessons and learn fast
                "-------------------------------------------------------------------------------
			EXIT MUSIC (FOR A FILM) - Radiohead
-------------------------------------------------------------------------------

Radiohead - OK Computer (1997)

Tuning: Standard


G|------------------------------------------------------------|
D|---------------------------------------4--------------------|
A|--2--2--222--5--7--4--4--444--------------------------------|
E|------------------------------4--3--2-----222--5--7--3------|

G|------------------------------------------------------------|
D|------------------------------------------------------------|
A|------------------------------------------------------------|
E|--3--333--5--3--3--3--333--5--7--8--8--888-10--8------------|

G|------------------------------------------------------------|
D|---------------------------------8--------------------------|
A|--9--9--999--9--9--9--99--10--9-----9-----------------------|
E|------------------------------------------------------------|

G|------------------------------------------------------------|
D|---------979------------979---------4--2--4---------4--2--4-|
A|----5---------79--7------------0---------------0------------|
E|--7---7--------------7-------2---2-----------2---2----------|

G|--------767--------767--------------------------------------|
D|------------------------2-2-2-2-2-2--4--5-------------------|
A|--5--5-------5--5-------------------------------------------|
E|------------------------------------------------------------|

G|------------------------------------------------------------|
D|------------------------------------------------------------|
A|--2--2/9--9/14--14/2----4--5--2-----------------------------|
E|------------------------------------------------------------|
"            
Submit corrections

comments powered by Disqus
↑ Back to top | Radiohead Bass for Exit Music (For A Film). Lyrics for acoustic guitar and electric guitar. Tablatures and chords are parodies/interpretations of the original songs. You may use it for private study, scholarship, research or language learning purposes only