» » »

Exit Music Bass tabs (ver.1)

Artists:  A B C D E F G H I J K L M N O P Q R S T U V W X Y Z # 

Exit Music Bass tabs (ver.1)

Radiohead
Rating:
0/5 (0 votes)

Hard to play? Try these video lessons and learn fast.
                
standard tuning, stomp on your fuzz pedal!

G ---------------------------------------------------------------
D ------------2----------------------4---------------------------
A --2--2-22-5---4--4--44-----------------------------------------
E ------------------------4-3-2--2-----22-5-7\3--3-33-/7br\3--3-33

G ----------------------------------------------
D ------------------------------9---------------
A --------------5-7-9-9-99-10-9---9---9---9-7---
E --5-7-8--8-88---------------------7---7-----10 ...


...the kick ass part

G -----------------------------------------------------7---7-6h7---7---7-6h7
D ---------9-7h9-7b---9-7h9--------4-2h4------4-2h4-------------------------
A ---------------------------------------7b----------5---5-------5---5------
E --7-10p7----------7--------2-5p2----------2-------------------------------

G ----9---9-7h9---9------------------------------------
D -----------------------------------------------------
A --7---7-------7----7---7-9-77-9-10\2--2/9--9/14--14\2
E -----------------------------------------------------
            
Hard to play? Try these video lessons and learn fast. | Correct




comments powered by Disqus
↑ Back to top | Tablatures and chords are parodies/interpretations of the original songs. You may use it for private study, scholarship, research or language learning purposes only