» » »

Radiohead, Everyone Needs Someone To Hate Bass tabs (ver.1)

Artists:  A B C D E F G H I J K L M N O P Q R S T U V W X Y Z # 

Everyone Needs Someone To Hate Bass tabs (ver.1)

Radiohead Tabs
Rating:
0/5 (0 votes)
Everyone Needs Someone To Hate lessons Tabs too difficult? Try these video lessons and learn fast
                

G|--------------------------------|-----------------|
D|--------------------------------|-----------------|
A|---------------------6----------|6----------------|
E|88-8-88-8-88-8-88-8----6-8--8-8-|---6-8--8-8------|x7

G|--------------------------------------------------|
D|--------------------------------------------------|
A|--------------------------------------------------|
E|88-8-8-88--88-8-8-88-88-8-8-88-88-8-8-88-88-8-8-88|


G|--------------------------------------------------|
D|--------------------------------------------------|
A|6-----------6-----------6-6-----------6-----------|
E|--6-8--8-8----6-8--8-8------8--8-8------6--8--8-8-|

G|--------------------------------------------------|
D|------8-8-7------6-6-5----------8-8-7-------6-6-5-|
A|6-----------6------------6------------6-----------|
E|--6-8---------6-8----------6-8----------6-8-------|

G|-------------------------------|------------------|
D|-------------------------------|------------------|
A|-------------------------------|6-----------------|
E|88-8-8-88--88-8-8-88-88-8-8-88-|---6-8--8-8-------|x4


G|--------------------------------------------------|
D|--------------------------------------------------|
A|--------------------------------------------------|
E|88-8-8-88--88-8-8-88-88-8-8-88-88-8-8-888--88-88--|
            

comments powered by Disqus
↑ Back to top | Radiohead Bass for Everyone Needs Someone To Hate. Lyrics for acoustic guitar and electric guitar. Tablatures and chords are parodies/interpretations of the original songs. You may use it for private study, scholarship, research or language learning purposes only