» » »

Electioneering Tabs (ver.2)

Artists:  A B C D E F G H I J K L M N O P Q R S T U V W X Y Z # 

Electioneering Tabs (ver.2)

Radiohead
Rating:
0/5 (0 votes)

Tabs too difficult? Try these video lessons and learn fast.
                transscriptet by Orri Tómasson

Hér hefuru þetta Dóri

This Radiohead song has pritty cool guitar riff I wonder why in the 
[beeb] someone hasn't allready tabed it allready it isn't so hard.

You have to excuse my pathetic English (you should be glad you can't 
hear me say what I write)

This is the best I could do:

Elec-Guitar clean
E----|--------|-------|
B----|--3-----|--3----|
G----|--2--b--|--2--b-|
D----|--0-----|--0----|
A----|--------|--0----|
e----|--------|-------|

B = bass play D (there is no reason for that I wrote the B on the 
G-string (not talking about any type of underwear))

0.14
E-----------------------------
B---6-8-6---8-6---8-6---8-6---
G---7-7-7-7-7-7-7-7-7-7-7-7-7- I think this riff is also plaid meanwhile
D-0--------------------------- the "distorted" riff is plaid 
A-0--------------------------- I'm not sure but when it is finish it (d riff)
e----------------------------- this one is played x2
distortet (over driven) Guitar
0.19
E---------------------|---------8h10------------|-----------------
B-------8-6-8-6-8-6---|-8-6-8-6------10----8----|---8-6-8-6-8-6---
G--6-7--------------7-|-----------------10---10-|---------------7-
D---------------------|-------------------------|-----------------
A---------------------|-------------------------|-----------------
e---------------------|-------------------------|-----------------
                 0.33
|-----------------
|---8-6-8-6-8-6---
|---------------7-
|-----------------
|-----------------
|-----------------


i will stop

i wil stop at nothiN
                E-----8--8--8--8---8--8--8--8---5-5-5-5--5-5-5-5-----
                B--8--8--8--8--8---8--8--8--8---5-5-5-5--5-5-5-5-----
                G-----9--9--9--9---9--9--9--9---6-6-6-6--6-6-6-6-----
                D-----10-10-10-10--10-10-10-10--7-7-7-7--7-7-7-7-----
                A-----10-10-10-10--10-10-10-10--7-7-7-7--7-7-7-7-----
                E-----8--8--8--8---8--8--8--8---5-5-5-5--5-5-5-5-----

This part isn't perfect tabbed
say the riGHt things
when electionneering.
                E-----8--8--8--8---8--8--8--8---5-5-5-5--5-5-5-5-----
                B--8--8--8--8--8---8--8--8--8---5-5-5-5--5-5-5-5-----
                G-----9--9--9--9---9--9--9--9---6-6-6-6--6-6-6-6-----
                D-----10-10-10-10--10-10-10-10--7-7-7-7--7-7-7-7-----
                A-----10-10-10-10--10-10-10-10--7-7-7-7--7-7-7-7-----
                E-----8--8--8--8---8--8--8--8---5-5-5-5--5-5-5-5-----
0.56
I trust i can rely on your vote.

Here you have the coolest riffs

I don't want to spend more time to the rest. I've spent too much time 
all ready unsuccecsful


Someone please tab the rest

Orri Tómasson
            
Tabs too difficult? Try these video lessons and learn fast.


comments powered by Disqus
↑ Back to top | Tablatures and chords are parodies/interpretations of the original songs. You may use it for private study, scholarship, research or language learning purposes only