>
 >
Electioneering

Electioneering Guitar Tabs

Radiohead - Electioneering chords, tabs, tablatures, lyrics

Guitar lessons | Add/correct | Request | Top 50 tabs Artists:  A B C D E F G H I J K L M N O P Q R S T U V W X Y Z 0-9

Electioneering Guitar Tabs – Radiohead

CD, Sheet music, Poster

Do you like Electioneering? Share with your friends now
Bass TabsBass Tabs v2Bass Tabs v3TabsTabs v2Tabs v3
Music Written by: Thom Yorke, Jonny Greenwood, Phil Selway, Ed O'brien, 
Colin Greenwood

Tuning:Standard

e|---------------------------------------------------------------------------|
B|-----------8---6--------8---6--------6-------------------------------------|
G|-------7------------7-----------7------------------------------------------|
D|---------------------------------------------------------------------------|
A|---5-----------------------------------------------------------------------|
E|---------------------------------------------------------------------------|
Main riff:repeated throughout most of the song, probabley played by Ed O'brien

Lead Guitar - Jonny Greenwood 
e|---------------------------------------------------------------------------|
B|-------------6--8--6--8--6--8--6-------------------------------------------|
G|---\x----7-------------------------7---------------------------------------|
D|---\x----------------------------------------------------------------------|
A|---\x----------------------------------------------------------------------|
E|---------------------------------------------------------------------------|


                          h  p
e|-----------------------8-10-8----------------------------------------------|
B|---6--8--6---8--6----------------8--6--------------------------------------|
G|----------------------------------------7----------------------------------|
D|---------------------------------------------------------------------------|
A|---------------------------------------------------------------------------|
E|---------------------------------------------------------------------------|



e|---------------------------------------------------------------------------|
B|---6--8--6---6--8---6--8---------------------------------------------------|
G|---------------------------7-----------------------------------------------|
D|---------------------------------------------------------------------------|
A|---------------------------------------------------------------------------|
E|---------------------------------------------------------------------------|



e|---------------------------------------------------------------------------|
B|---6--8--6---6--8---6--8---------------------------------------------------|
G|---------------------------7-----------------------------------------------|
D|---------------------------------------------------------------------------|
A|---------------------------------------------------------------------------|
E|---------------------------------------------------------------------------|


Verse Riff
e|---------------------------------------------------------------------------|
B|---7-------------------------------------5-3--5-3--------------------------|
G|-------7-7-7-7-7-7-7-7---5-5-5-5-5-5---------------------------------------|
D|-------7-7-7-7-7-7-7-7---5-5-5-5-5-5---------------------------------------|
A|-------5-5-5-5-5-5-5-5---3-3-3-3-3-3---------------------------------------|
E|---------------------------------------------------------------------------|

                          bend up then down   
                                 /\ 
e|------------------------------9--------------------------------------------|
B|-------6--8---6--8---6--8-----------8--6-----------------------------------|
G|---7----------------------------------------7------------------------------|
D|---------------------------------------------------------------------------|
A|---------------------------------------------------------------------------|
E|---------------------------------------------------------------------------|



e|---------------------------------------------------------------------------|
B|---6--8---6--8-------------------------------------------------------------|
G|---------------------------------------------------------------------------|
D|------------------6--7--6--8--6--9-----------------------------------------|
A|---------------------------------------------------------------------------|
E|---------------------------------------------------------------------------|


Chorus - Jonnys part (I think)
e|--------------------------|------------------------------------------------|
B|--------------------------|------------------------------------------------|
G|--------------------------|----------------------p-------------------------|
D|--2-2---4-4---6-6---8-8---|--10-10---8-8---6-6--6-4---2--------------------|
A|--2-2---4-4---6-6---8-8---|--10-10---8-8---6-6--6-4---2--------------------|
E|--------------------------|------------------------------------------------|



e|--------------------------|------------------------------------------------|
B|--------------------------|------------------------------------------------|
G|--------------------------|------------------------------------------------|
D|--10-10---8-8---6-6---4-4-|--5-5-5---3-3---1-1---0-0-----------------------|
A|--10-10---8-8---6-6---4-4-|--5-5-5---3-3---1-1---0-0-----------------------|
E|--------------------------|------------------------------------------------|



e|------------------------------|--------------------------------------------|
B|------------------------------|--------------------------------------------|
G|---------------------p--------|---------------------p----------------------|
D|--2-2---4-4---6-6---8-6---5---|--3-3---5-5---7-7---9-7--6------------------|
A|--2-2---4-4---6-6---8-6---5---|--3-3---5-5---7-7---9-7--6------------------|
E|------------------------------|--------------------------------------------|


                                                        /\ 
e|-----------------------------------------------------9---------------------|
B|--------------------------------/\/\/\/-----6--------------8-6-------------|
G|------------------------------9------------7-7-----------------------------|
D|--4-4---6-6---8-8---10-10--------------------------------------------------|
A|--4-4---6-6---8-8---10-10--------------------------------------------------|
E|---------------------------------------------------------------------------|


Chorus - Ed's part(or maby Thom)
e|-------------------|--------------------|----------------------------------|
B|-------------------|--------------------|----------------------------------|
G|--4---6---8---10---|---4---6---8---10---|---4---6---8---10-----------------|
D|--4---6---8---10---|---4---6---8---10---|---4---6---8---10-----------------|
A|--2---4---6---8----|---2---4---6---8----|---2---4---6---8------------------|
E|-------------------|--------------------|----------------------------------|
Repeat the whole lot twice for the choruse while Thom sings

Bridge - lead guitar - Jonny Greenwood 
                     h                                /\ 
e|------------------8-11----------|-----------------10------h-p--------------|
B|---6-8-6---8-6-----------8-7-6--|---6-8-6---8-6----------6-8-6-------------|
G|--------------------------------|------------------------------------------|
D|--------------------------------|------------------------------------------|
A|--------------------------------|------------------------------------------|
E|--------------------------------|------------------------------------------|


                      
e|------------------/---/----/\----h-p---|-----------------------------------|
B|---6-8-6---8-6---8---8----8-----6-8-6--|---6-8--6--8-6---------------------|
G|---------------------------------------|-----------------------------------|
D|---------------------------------------|----------------7-9-7-10-7-11-7-12-|
A|---------------------------------------|-----------------------------------|
E|---------------------------------------------------------------------------|


Solo/ Outro
e|---x---x---x---x---x---x---x---x---x---x-----------------------------------|
B|---x---x---x---x---x---x---x---x---x---x-----------------------------------|
G|---7---5---7---9---8-/-6---3---7---10--9-----------------------------------|
D|---x---x---x---x---x---x---x---x---x---x-----------------------------------|
A|---5---3---5---7---6-/-4---1---5---8---7-----------------------------------|
E|---x---x---x---x-----------x---x---x---x-----------------------------------|
    //  //  //  //          //  //  //  //
 
          p p        p p        p p
e|---10--10-9-8---8--8-7-6---7--7-6-5---5------------------------------------|
B|-------------------------------------------/7------------------------------|
G|---------------------------------------------------------------------------|
D|---------------------------------------------------------------------------|
A|---------------------------------------------------------------------------|
E|---------------------------------------------------------------------------|

 
        p p        p p        p p
e|---8--8-7-6---7--7-6-5---6--6-5-4---4--4-----------------------------------|
B|---------------------------------------------------------------------------|
G|---------------------------------------------------------------------------|
D|---------------------------------------------------------------------------|
A|---------------------------------------------------------------------------|
E|---------------------------------------------------------------------------|

 
     h p     p     p     p         p 
e|---4-5-4---5-4---5-4---5-4---4---5-4--4------------------------------------|
B|---------------------------------------------------------------------------|
G|---------------------------------------------------------------------------|
D|---------------------------------------------------------------------------|
A|---------------------------------------------------------------------------|
E|---------------------------------------------------------------------------|


      p                           p
e|---5-4---4\--------------------5-3----p------------------------------------|
B|-------------/5--5--3-5--3-5---------5-3-----------------------------------|
G|-------------------------------------------5-------------------------------|
D|---------------------------------------------------------------------------|
A|---------------------------------------------------------------------------|
E|---------------------------------------------------------------------------|



e|---------/--------p--------------------------------------------------------|
B|---/5---5----x---5-3-----p-------------------------------------------------|
G|------------------------5-3------------------------------------------------|
D|--------------------------------5------------------------------------------|
A|---------------------------------------------------------------------------|
E|---------------------------------------------------------------------------|



e|---------8-7---------8-7---3-/5--/10--/8-----------------------------------|
B|---3-5---------3-5--------//-//---//--//-----------------------------------|
G|---------------------------------------------------------------------------|
D|---------------------------------------------------------------------------|
A|---------------------------------------------------------------------------|
E|---------------------------------------------------------------------------|



e|---x--5-5--x-x--4-4--x-x--3-3----------------------------------------------|
B|---x--6-6--x-x--5-5--x-x--4-4----------------------------------------------|
G|---x--7-7--x-x--6-6--x-x--5-5----------------------------------------------|
D|---x--7-7--x-x--6-6--x-x--5-5------h-p----3--------------------------------|
A|---x--5-5--x-x--4-4--x-x--3-3-----3-5-3------------------------------------|
E|---x--5-5--x-x--4-4--x-x--3-3----------------------------------------------|



e|---x--5-5--x-x--4-4--x-x--3-3----------------------------------------------|
B|---x--6-6--x-x--5-5--x-x--4-4----------------------------------------------|
G|---x--7-7--x-x--6-6--x-x--5-5----------------------------------------------|
D|---x--7-7--x-x--6-6--x-x--5-5------h-p----3--------------------------------|
A|---x--5-5--x-x--4-4--x-x--3-3-----3-5-3------------------------------------|
E|---x--5-5--x-x--4-4--x-x--3-3----------------------------------------------|


e|---x--5-5--x-x--4-4--x-x--3-3----------------------------------------------|
B|---x--6-6--x-x--5-5--x-x--4-4----------------------------------------------|
G|---x--7-7--x-x--6-6--x-x--5-5----------------------------------------------|
D|---x--7-7--x-x--6-6--x-x--5-5------h-p----3--------------------------------|
A|---x--5-5--x-x--4-4--x-x--3-3-----3-5-3------------------------------------|
E|---x--5-5--x-x--4-4--x-x--3-3----------------------------------------------|


e|---x--5-5--x-x--4-4--x-x--3-3----------------------------------------------|
B|---x--6-6--x-x--5-5--x-x--4-4----------------------------------------------|
G|---x--7-7--x-x--6-6--x-x--5-5----------------------------------------------|
D|---x--7-7--x-x--6-6--x-x--5-5------h-p----3--------------------------------|
A|---x--5-5--x-x--4-4--x-x--3-3-----3-5-3------------------------------------|
E|---x--5-5--x-x--4-4--x-x--3-3----------------------------------------------|



e|---x-x---5---13--10--8---x-x---5---13---x---5---x---5---13---x---5---------|
B|---x-x---6---------------x-x---6--------x---6---x---6--------x---6---------|
G|---x-x---7---------------x-x---7--------x---7---x---7--------x---7--let----|
D|---x-x---7---------------x-x---7--------x---7---x---7--------x---7--ring---|
A|---x-x---5---------------x-x---5--------x---5---x---5--------x---5---------|
E|---x-x---5---------------x-x---5--------x---5---x---5--------x---5---------|


Outro - Ed
e|---------------------------------------------------------------------------|
B|---------8-8---6-----------------------------------------------------------|
G|------7------------7---7-7-7-----------------------------------------------|
D|---------------------------------5-5---------------------------------------|
A|---5-----------------------------------5-5---------------------------------|
E|---------------------------------------------------------------------------|



e|------------------------------------------5--------------------------------|
B|---------8-8---6--------------------------6--------------------------------|
G|------7------------7---7-7-7--------------7-----let ring-------------------|
D|------------------------------5-5---------7--------------------------------|
A|---5--------------------------------5-5---5--------------------------------|
E|------------------------------------------5--------------------------------|

Structure:Intro, Verse 1, Chorus, Bridgem, Verse 2, Chrous, Solo/Outro 

| /  slide up
| \  slide down
| h  hammer-on
| p  pull-off
| ~  vibrato
| +  harmonic
| x  Mute note
| pm palm mute

Lyrics:

Verse1: I will stop, I will stop at nothing, say the right thing, 
        when electioneering
        I trust I can rely on your vote

Chorus: When I go forward you go backwards and somewhere we will meet

Verse2: Riot sheild, voodoo economics, its just business, 
        cattle prods and the IMF
        I truse I can rely on your vote 





Comments


Popular Radiohead tabs & chords
15 Step Bass Tabs
Paranoid Android 2 Bass Tabs
High And Dry 3 Chords
Kid A Chords
Myxomatosis Judge Jury Executioner Chords
Ripcord Chords
Bloom Tabs
Bodysnatchers Tabs
Electioneering 2 Tabs
Lull Tabs


Song lyrics



↑ Back to top | Tablatures and chords are parodies/interpretations of the original songs. You may use it for private study, scholarship, research or language learning purposes only
© 2014 AZChords.com Contact us | Privacy policy | DMCA | Add/correct tabs | Request tabs | Top 50 tabs