» » »

Radiohead, Dollars & Cents Bass tabs (ver.1)

Artists:  A B C D E F G H I J K L M N O P Q R S T U V W X Y Z # 

Dollars & Cents Bass tabs (ver.1)

Radiohead Tabs
Rating:
0/5 (0 votes)
Dollars & Cents lessons Tabs too difficult? Try these video lessons and learn fast
                Dollars And Cents
Radiohead

G-|-4-----------2---2--:-|
D-|-----------4---4---4--|
A-|---2-2-2-5------------|
E-|--------------------:-|

or live sometimes

G-|-4-----------2---2222-:-|
D-|-----------4---4--------|
A-|---2-2-2-5--------------|
E-|----------------------:-|

Repeat for the whole song. 
            

comments powered by Disqus
↑ Back to top | Radiohead Bass for Dollars & Cents. Lyrics for acoustic guitar and electric guitar. Tablatures and chords are parodies/interpretations of the original songs. You may use it for private study, scholarship, research or language learning purposes only