» » »

Dollars & Cents Bass tabs (ver.2)

Artists:  A B C D E F G H I J K L M N O P Q R S T U V W X Y Z # 

Dollars & Cents Bass tabs (ver.2)

Radiohead
Rating:
0/5 (0 votes)

Tabs too difficult? Try these video lessons and learn fast.
                Dollars & Cents
Radiohead
Amnesiac


The other tab was right, but I felt it was missing something.

The Main Groove.
  (it starts in major sounding scale)
G|--------------------------------------------|
D|-9-----------7---7-9---9-----------7---7-9--|
A|-------6-7-9---9-------------6-7-9---9------|
E|---7-7-------------------7-7----------------|x2
  (and then moves to a more dissonant minor scale)
G|--------------------------------------------|
D|-9-----------7---7-9---9-----------7---7-9--|
A|-------5-7-9---9-------------5-7-9---9------|
E|---7-7-------------------7-7----------------|x2

that repeats throughout the whole song!
Joy!
            
Tabs too difficult? Try these video lessons and learn fast.




comments powered by Disqus
↑ Back to top | Tablatures and chords are parodies/interpretations of the original songs. You may use it for private study, scholarship, research or language learning purposes only