» » »

Creep Tabs (ver.4)

Artists:  A B C D E F G H I J K L M N O P Q R S T U V W X Y Z # 

Creep Tabs (ver.4)

Radiohead
Rating:
0/5 (0 votes)

Hard to play? Try these video lessons and learn fast.
                (Acoustic)
Radiohead did a remarkable yet simple job turning this classic acoustic.  Its really the same riff throughout the entire song.  Don’t worry, it really is and I’m not just being incompetent.  Standard tuning.

G)---4---4---4---4---4---4---4---5---5---5---4---4---8---8---8---8---8---8---8---9---9---9---8

D)--------------------------------------------------------------------------------------------------------

A)---2---2---2---2---2---2---2---3---3---3---2---2---6---6---6---6---6---6---6---7---7---7---6

E)---0---0---0---0---0---0---0---0---0---0---0---0---0---0---0---0---0---0---0---0---0---0---0


G)---8---9---9---9---9---9---9---9 –10- 10- 10- 9---9

D)-----------------------------------------------------------

A)---6---7---7---7---7---7---7---7---8---8---8---7---7

E)---0---0---0---0---0---0---0---0---0---0---0---0---0
            
Hard to play? Try these video lessons and learn fast. | Correct




comments powered by Disqus
↑ Back to top | Tablatures and chords are parodies/interpretations of the original songs. You may use it for private study, scholarship, research or language learning purposes only