» » »

Creep Tabs (ver.5)

Artists:  A B C D E F G H I J K L M N O P Q R S T U V W X Y Z # 

Creep Tabs (ver.5)

Radiohead
Rating:
0/5 (0 votes)

Hard to play? Try these video lessons and learn fast.
                

-3-|--7--|-8-|-----|------------------|
-3-|--7--|-8-|-----|------------------|
-4-|--8--|-9-|-----|------------------|
-5-|--9--|-10|---10|------------------|
-5-|--9--|-10|---10|------------------|
-5-|--7--|---|---8-|------------------|
 Here are the main chords for the song

-3-|--7--|-8-|------|--|
-3-|--7--|-8-|------|--|
-5-|--9--|-10|---10-|--|
-3-|--7--|-8-|---8--|--|
-5-|--9--|-10|---10-|--|
-3-|--7--|-8-|---8--|--|
Add in these variations with each chord
            
Hard to play? Try these video lessons and learn fast. | Correct




comments powered by Disqus
↑ Back to top | Tablatures and chords are parodies/interpretations of the original songs. You may use it for private study, scholarship, research or language learning purposes only