» » »

Radiohead, Creep Bass tabs (ver.4)

Artists:  A B C D E F G H I J K L M N O P Q R S T U V W X Y Z # 

Creep Bass tabs (ver.4)

Radiohead Tabs
Rating:
0/5 (0 votes)
Creep lessons Tabs too difficult? Try these video lessons and learn fast
                Intro:
G[--------------------------------------------------------------------------------|
D[--------------------------------------------------------------------------------|
A[------------------------2-2-222-2--2-2-222--3-3-333-3-2-3-3-333-3-2-3-3-333-3---|
E[3-3-333-3-0-3-3-333-3-0-----------3-------3-------------------------------------|

[------------]
[23-56-8-----]
[------------]


Verse:
G[--------------------------------------------------------------------------------|
D[--------------------------------------------------------------------------------|
A[------------------------2-2-222-2--2-2-222--3-3-333-3-2-3-3-333-3-2-3-3-333-3---|
E[3-3-333-3-0-3-3-333-3-0-----------3-------3-------------------------------------|

[------------]
[------------]
[23-56-8-----]
[------------]X 3

Chorus:
G[--------------------------------------------------------------------------------]
D[--------------------------------------------------------------------------------]
A[------------------------2-2-222-2--2-2-222--3-3-333-3-2-3-3-333-3-2-3-3-333-3---]
E[3-3-333-3-0-3-3-333-3-0-----------3-------3-------------------------------------]

[------------]
[------------]
[23-56-8-----]
[------------]

Verse:
G[--------------------------------------------------------------------------------|
D[--------------------------------------------------------------------------------|
A[------------------------2-2-222-2--2-2-222--3-3-333-3-2-3-3-333-3-2-3-3-333-3---|
E[3-3-333-3-0-3-3-333-3-0-----------3-------3-------------------------------------|

[------------]
[------------]
[23-56-8-----]
[------------]X 3

Chorus:
G[--------------------------------------------------------------------------------]
D[--------------------------------------------------------------------------------]
A[------------------------2-2-222-2--2-2-222--3-3-333-3-2-3-3-333-3-2-3-3-333-3---]
E[3-3-333-3-0-3-3-333-3-0-----------3-------3-------------------------------------]

[------------]
[------------]
[23-56-8-----]
[------------]


Bridge:
G[--------------------------------------------------------------------------------]
D[--------------------------------------------------------------------------------]
A[------------------------2-2-222-2--2-2-222--3-3-333-3-2-3-3-333-3-2-3-3-333-3---]
E[3-3-333-3-0-3-3-333-3-0-----------3-------3-------------------------------------]

[------------]
[------------]
[23-56-8-----]
[------------]

Outro/end
G[---------------------------------]
D[---------------------------------]
A[-------2~--22--3~--33---3~--33---]
E[3~--33---------------------------]X2
            

comments powered by Disqus
↑ Back to top | Radiohead Bass for Creep. Lyrics for acoustic guitar and electric guitar. Tablatures and chords are parodies/interpretations of the original songs. You may use it for private study, scholarship, research or language learning purposes only