>
 >
Ceremony

Ceremony Guitar Tabs

Radiohead - Ceremony chords, tabs, tablatures, lyrics

Guitar lessons | Add/correct | Request | Top 50 tabs Artists:  A B C D E F G H I J K L M N O P Q R S T U V W X Y Z 0-9

Ceremony Guitar Tabs – Radiohead

CD, Sheet music, Poster

Do you like Ceremony? Share with your friends now
Tabs
Tuning: Standard

As performed by the band during their Scotch Mist Webcast:


This tab incorporates both Thom and Jonny's parts so that it can be
played on one guitar. Enjoy this great song and please rate!

KEY:
~ = Let ring
h = Hammer on
b = Bend note


Intro Solo by Thom (0:34)                                 (0:47)

e -----------------------------------------------------|--0~---0~--|
b -----------------------------------------------------|--0~---0~--|
g -----------------------------------------------------|--9~---9~--|
d -------------------------------------------------5~--|--10~--10~-|
a --5h7~----12--10--5h7~----5--7--5--7----5--7~----3~--|--8~---8~--|
E -----------------------------------------------------|-----------|


Chorus (0:54)

e -------------------------------------------------------|
b ---------------------------------------8---8---8---8---|
g --9---9----12--12---9---9----12--12----9---9---9---9---|
d --10--10---10--10---10--10---10--10----10--10--10--10--|
a --8---8----8---8----8---8----8---8-----10--10--10--10--|
E ---------------------------------------8---8---8---8---|


Verse 1 Riff (1:06)

e -----------------------|
b -----------------------|
g -----------------------|
d -----10--9-------------|
a ------------10--(x24)--|
E --8--------------------|


(1:48)

PLAY CHORUS x3 THEN LET CHORDS RING ONE TIME EACH ON FOURTH TIME


Solo 2 by Thom (2:15)

e -------------------------------------------------------------------|
b -------------------------------------------------------------------|
g -------------------------------------------------------------------|
d -------------------------------------------------------------------|
a --7--5--7--5--10--10--8--7--5----7--5--7--5--7b--7--5--7--5--(x4)--|
E -------------------------------------------------------------------|


(2:43)
PLAY CHORUS x3 THEN STRUM FIRST CHORD ONLY AND LET RING


Melody by Jonny (3:10)

e ------------------|
b --------8---------|
g -----9------------|
d -10--------(x48)--|
a ------------------|
E ------------------|


(3:52)
PLAY CHORUS x2


Outro Solo by Thom (4:06)

e -------------------------------------------------------------|
b -------------------------------------------------------------|
g -------------------------------------------------------------|
d -------------------------------------------------------------|
a --7--5--7--5--10--10--8--7--5----7--5--7--5--7b--7--5--7--5--|
E -------------------------------------------------------------|

e -----------------------------------|
b -----------------------------------|
g -----------------------------------|
d -------------------------------5~--|
a --7--5--7--5--10--10--8--7--5--3~--|
E -----------------------------------|





Comments


Popular Radiohead tabs & chords
Big Ideas Bass Tabs
Hunting Bears Bass Tabs
Lotus Flower 2 Bass Tabs
India Rubber Chords
Exit Music For A Film Drum Tabs
(Nice Dream) 2 Tabs
15 Step 1 Tabs
Bulletproofwish I Was Tabs
My Iron Face Tabs
National Anthem Ukulele


Song lyrics



↑ Back to top | Tablatures and chords are parodies/interpretations of the original songs. You may use it for private study, scholarship, research or language learning purposes only
© 2014 AZChords.com Contact us | Privacy policy | DMCA | Add/correct tabs | Request tabs | Top 50 tabs