» » »

Radiohead, Bullet Proof Bass tabs (ver.1)

Artists:  A B C D E F G H I J K L M N O P Q R S T U V W X Y Z # 

Bullet Proof Bass tabs (ver.1)

Radiohead Tabs
 Rating:
4/5 (4 votes)
Bullet Proof lessons Tabs too difficult? Try these video lessons and learn fast
                *MEMBER OF THE BASS TAB ARCHIVE TABBING ARMY*


The last version of this tab was mainly incorrect because it was an
octave too low, but there are other things that Andrew missed. This is a 
shame, because this is one of the sweetest, loveliest songs Radiohead has 
ever done.  And it's actually pretty easy, though it may be confusing at 
first. I'm sure you'll get the hang of it.
There are only two main riffs--the verse and the chorus. Here they are.

RIFF #1 ("Limb by limb, tooth by tooth...")
G---------------------------------------------------------------|
D---------------10--10-----10-10h12-9---9-9-----12--12--9h10-9--|
A-12--12-12--10---------10-------------------10-----------------|
E---------------------------------------------------------------|

G-----------------------------------------------------------------------|
D------------9-10------10-10h12-9---9-9-----12--12-12-----12--12--9h10-9|
A-12--12-12---------10-------------------10------------10---------------|
E-----------------------------------------------------------------------|

This first riff segues cleanly into the second, which is played during the
gorgeous chorus.

RIFF #2 ("Bulletprooooooo...")
G-----------------------------------------------------------------------|
D-----------------9---9-----10-12---[10]------9h10----------------------|
A-10---10-10---12----------------------------------10-9-7----9----10----|
E------------------------10-------------------------------10---10-------|

G----------------------------------------|
D-------------9---9--10--12--10------[9]-|
A--10-10---12--------------------x-x-----|
E----------------------------------------|

And that's it. Do as many variations as you like, but I'm pretty sure that
I've included all of the main ones that Colin does. Lovely song. Please

KEY:
h=hammer-on
x=harmonic
[]=let ring

SHORESWORTH'S PSYCHEDELIC BREAKFAST (my webpage):
            
Submit corrections

comments powered by Disqus
↑ Back to top | Radiohead Bass for Bullet Proof. Lyrics for acoustic guitar and electric guitar. Tablatures and chords are parodies/interpretations of the original songs. You may use it for private study, scholarship, research or language learning purposes only