» » »

Bones Bass tabs (ver.3)

Artists:  A B C D E F G H I J K L M N O P Q R S T U V W X Y Z # 

Bones Bass tabs (ver.3)

Radiohead
Rating:
0/5 (0 votes)

Hard to play? Try these video lessons and learn fast.
                Radiohead
Bones
The bends
1995
Standard Tuning

                    -                                              -
                    -                                              -
Note:the     2   note can be change to   -.  Its your decision
                    -                                              7


Intro & Verse
----------------------------------------------------------|
----------------------------------------------------------|
-5-5-5-5---------------------2---------------2-------5----|   x 5
---------3-3-3-3-2-0-2-5---5---5-5-5-2-3-5-5---5-5-5---5--|


Last Verse & Chorus
---------------------------------------------------------|
-----------------4---4-----------------------------------|
-5-5-5-5---------------------2---------------2-----------|
---------3-3-3-3---2---5---5---5-5-5-2-3-5-5---5-5-5-3-2-|

-------------------------------------------------------------|
-------------------------------------------------------------|
-----------------------------2-------5-------2---------------|
-0-0-0-0-2-2-2-2-3-2-(3)-5--5---5-5-5---5-5-5---5-5-5-2-3----|

--------------------------------------------------------------|
--------------------------------------------------------------|
-----------------------------2-------5-------2-------7-7------|
-0-0-0-0-2-2-2-2-3-2-(3)-5--5---5-5-5---5-5-5---5-5-5-----5---|

Verse 2

----------------------------------------------------------|
----------------------------------------------------------|
-5-5-5-5---------------------2---------------2-------5----|
---------3-3-3-3-2-0-2-5---5---5-5-5-2-3-5-5---5-5-5---5--|

---------------------------------------------------------|
-----------------4---4-----------------------------------|
-5-5-5-5---------------------2---------------2-----3-5-8-|
---------3-3-3-3---2---5---5---5-5-5-2-3-5-5---5-5-------|

Last Verse & Chorus
---------------------------------------------------------|
-----------------4---4-----------------------------------|
-5-5-5-5---------------------2---------------2-----------|
---------3-3-3-3---2---5---5---5-5-5-2-3-5-5---5-5-5-3-2-|

-------------------------------------------------------------|
-------------------------------------------------------------|
-----------------------------2-------5-------2---------------|
-0-0-0-0-2-2-2-2-3-2-(3)-5--5---5-5-5---5-5-5---5-5-5-2-3----|

---------------------------------------------------------------|
---------------------------------------------------------------|
-----------------------------2-------5-------2-----/10-10-10---|
-0-0-0-0-2-2-2-2-3-2-(3)-5--5---5-5-5---5-5-5---5-5------------|

-------------------------------------------------------------|
-------------------------------------------------------------|
-5-5-5-5--------------------2-------5-------7----------------|
---------3-3-3-3-2-0-2-5--5---5-5-5---5-5-5---5-5-5-5-5-5----|

-------------------------------------------------------------|
-----------------4---2---------------------------------------|
-5-5-5-5--------------------2-------5-------2----------------|
---------3-3-3-3---2---5--5---5-5-5---5-5-5---5-5-5-2-3------|

-----------------------------------------------------------------------|
-----------------------------------------------------------------------|
-----------------------------2-------5-------2--------------       x 4-|
-0-0-0-0-2-2-2-2-3-2-(3)-5--5---5-5-5---5-5-5---5-5-5-2-3--------------|

Outro
------------------------------------------------------------|
------------------------------------------------------------|
------------------------------2-------5-------2-------------|
-0-------2--------3-----5---5---5-5-5---5-5-5---5-5-5-2-3---|

------------------------------------------------------------|
------------------------------------------------------------|
------------------------------------------------------------|
-0-------2--------3------5----------------------------------|


Have Fun!
Hugo
            
Hard to play? Try these video lessons and learn fast. | Correct




comments powered by Disqus
↑ Back to top | Tablatures and chords are parodies/interpretations of the original songs. You may use it for private study, scholarship, research or language learning purposes only