» » »

Radiohead, Blow Out Tabs (ver.3)

Artists:  A B C D E F G H I J K L M N O P Q R S T U V W X Y Z # 

Blow Out Tabs (ver.3)

Radiohead Tabs
 Rating:
4/5 (4 votes)
Blow Out lessons Tabs too difficult? Try these video lessons and learn fast
                ----------------------------------------------------------------------------
----------------------------------------------------------------------------

Tuning: Standard


e|---2----2-2--2-2---2------------|
B|---0----0-0--0-0---0------------|
G|---0----0-0--0-0---0---0-0------|
D|---2----2-2--2-2---2---4-4------|
A|---2----2-2--2-0---0---4-4------|
E|-----------------------0-0------|

e|---2----2-2--2-2---2--------------3—-0--0------3--0--0-------------------|
B|---0----0-0--0-0---0--------------0--2--2------0--2--2-------------------|
G|---0----0-0--0-0---0---0-0--------0--2--2------0--2--2-------------------|
D|---2----2-2--2-2---2---4-4--------0--2--2------0--2--2-------------------|
A|---2----2-2--2-0---0---4-4--------2—-0--0------2--0--0-------------------|
E|-----------------------0-0--------3—-0--0------3--0--0-------------------|
            
Submit corrections

comments powered by Disqus
↑ Back to top | Radiohead Tabs for Blow Out. Lyrics for acoustic guitar and electric guitar. Tablatures and chords are parodies/interpretations of the original songs. You may use it for private study, scholarship, research or language learning purposes only