» » »

Radiohead, Blow Out Bass tabs (ver.1)

Artists:  A B C D E F G H I J K L M N O P Q R S T U V W X Y Z # 

Blow Out Bass tabs (ver.1)

Radiohead Tabs
 Rating:
4/5 (4 votes)
Blow Out lessons Tabs too difficult? Try these video lessons and learn fast
                artist : Radiohead
song : Blow out
album : Pablo honey
tuning : E,A,D,G standard




intro
G------------------------------------------|
D------------------------------------------|
A--------567---------567-------------------|
E-0-00-00-----0-00-00------3-55----7-55----| 

G------------------------------------------|
D------------------------------------------|
A---------567---------567------------------|
E5-0-00-00-----0-00-00------3-55----7-5~~~-|


verse ( 00 : 26 )

G---------------------------------------|
D-------------------------------------- |
A--------567---------567----------------|
E-0-00-00-----0-00-00------3-55----7-55-| x 5



chorus ( 1: 21 )

G----------------------------------|
D----------------------------------|
A0000000000000000-3333333333333333-|
E----------------------------------| x4



verse 2

G---------------------------------------|
D---------------------------------------|
A--------567---------567----------------|
E-0-00-00-----0-00-00------3-55----7-55-| x 2

bridge ( 2:16 )

G---------------------------------|
D---------------------------------|
A---------------------------------|
E-0~--------0~--------5~--------5~|

G---------------------------------|
D---------------------------------|
A---------------------------------|
E-0~--------0~--------5~--------5~|

G---------------------------------|
D---------------------------------|
A---------------------------------|
E-0~--------0~--------5~--------5~|

G------------------------------------------|
D------------------------------------------|
A------------------------------------------|
E-0~--------0~--------5 ~--------5--5555555|


ending ( 3:11 )

part A
G-------------|
D-------------|
A-7----5-777--|  x 4          
E---00--------|

part B
G-------------|
D-------------|
A-------------|  x 4
E-555-3-5555--|                       
                                        A--7~---|
repeat part A and part B until the end  E--0~---|  


this is a simple version, but is very good and fun to play. Please rate it ;)
            
Submit corrections

comments powered by Disqus
↑ Back to top | Radiohead Bass for Blow Out. Lyrics for acoustic guitar and electric guitar. Tablatures and chords are parodies/interpretations of the original songs. You may use it for private study, scholarship, research or language learning purposes only