» » »

Radiohead, Black Star Bass tabs (ver.1)

Artists:  A B C D E F G H I J K L M N O P Q R S T U V W X Y Z # 

Black Star Bass tabs (ver.1)

Radiohead Tabs
 Rating:
4/5 (4 votes)
Black Star lessons Tabs too difficult? Try these video lessons and learn fast
1
                Black Star - Radiohead
                
Intro             (3x)
G|---------------------|-------------------|
D|*-------------------*|-------------------|
A|*-5------2----3-2-0-*|-0-----------------|
E|---------------------|-------------------|

Verse           
G|---------------|---------------|-----------------|------------------|
D|*--------------|---------------|-----------------|-----------------*|
A|*-------3--3---|-2--2--5--5----|-7--7-7h9--7---7-|-7--7-7h9--7---7-*|
E|--3--3---------|---------------|--7--------------|--7---------------|
                
Pre-Chorus
G|-------------------|-----------------|----------------------|
D|*-----------------*|-----------------|----------------------|
A|*-3-3-3-3-3-3-3-3-*|-2-2-2-2-2-2-2-2-|-5-5-5-5-5---5-5--5-5-|
E|-------------------|-----------------|----------------------|
                
Chorus
G|------------------|------------------|------------------|------------------|
D|*-----------------|-----------------*|------------------|------------------|
A|*-------------0-2-|-3------3-3--3-3-*|---------3-3-3-3--|---------3-2r5----|
E|-5-5-5-5-5-5------|------------------|-3-3-3-3----------|-3-3-3-3----------|

Verse
Pre-Chorus
Chorus
Intro
Verse (bass only)
Pre-Chorus
Chorus
Intro (repeat until end)
            
Submit corrections

comments powered by Disqus
↑ Back to top | Radiohead Bass for Black Star. Lyrics for acoustic guitar and electric guitar. 1 Tablatures and chords are parodies/interpretations of the original songs. You may use it for private study, scholarship, research or language learning purposes only