» » »

Radiohead, Big Ideas Bass tabs (ver.1)

Artists:  A B C D E F G H I J K L M N O P Q R S T U V W X Y Z # 

Big Ideas Bass tabs (ver.1)

Radiohead Tabs
 Rating:
4/5 (4 votes)
Big Ideas lessons Tabs too difficult? Try these video lessons and learn fast
1
                Tuning: Standard (E A D G)

I tabbed this off a live cd. Salamanca 08/07/02. I can't guarantee that it will match up with every live version because I know a lot of them are different with lyrics and other instruments. This is my interepretation. The bass is pretty audible if you listen for it on Salamanca.

Verse 1:

G#m              G#         A          E             C#m           B
G|--------------|----------|----------|-------------|------------|--------||
D|--------------|----------|----------|-------------|------------|--------||
A|----------4/11|-11~------|----------|-------------|------------|--------||
E|-4~--4~-------|------11\4|-5--5~--5~|12~-12~-12-10|9~---9-9-9--|7~-7-7-7||
G#m           G#          A          E             C#m          B
G|-----------|-----------|----------|-------------|------------|---------||
D|-----------|-----------|----------|-------------|------------|---------||
A|-----------|----4---6--|--(7)-----|7-7-7-7-7-9-7|-4--4-4-4-4\|-2~-2-2-2||
E|4~--4~--4~-|4~--------4|5~---5~--5|-------------|------------|---------||

Chorus:
 G#m            A          G#m        A           C#m          C#m
G|------------|-----------|---------|------------|-----------|-----------||
D|------------|-----------|---------|------------|-----------|-----------||
A|------------|4----------|---------|------------|-----------|-----------||
E|-4~---4-4~-4|--5~-5~--5~|2-4~-4~-4|-2-4-5~-5-5~|-5-7/9-9~-9|9~-7-9-9-9\||

Verse 2:
G#m           G#          A          E             C#m          B
G|-----------|-----------|----------|-----------|------------|--------||
D|-----------|-----------|----6-7-7-|-----------|------------|--------||
A|-----------|---6-6-----|---------7|7-----5----|------------|--------||
E|4~--4~-4-4~|4~-----4-4-|5~--------|--0-----0--|9~--9-9-9-11|7~-7-7-7||
  G#m        G#         A                 E     C#m      B 
G|----------|----------|-----------------|----------------------||
D|----------|6~--6~-6-6|----------5/7----|----------------------||
A|----------|----------|-0~--0-0~-----7\4|-R----E----S---T------||
E|4~--4~-4-4|----------|-----------------|----------------------||

Chorus

Outro
  E             Am     E             Am    C            C/B
G|-------------|------|-------------|-----|-------12---|-------------||
D|-------------|-7-7-7|-------------|7-7-7|-10-10----10|-9-9-9h10-9-7||
A|7~-7-7~-7~-7~|------|7~-7-7~-7~-7~|-----|------------|-------------||
E|-------------|------|-------------|-----|------------|-------------||
  Am7   D7      Em
G|-----|-7~--7~|------||
D|7~-7~|-------|------||
A|-----|5------|-7~---||
E|-----|-------|------||
            
Submit corrections

comments powered by Disqus
↑ Back to top | Radiohead Bass for Big Ideas. Lyrics for acoustic guitar and electric guitar. 1 Tablatures and chords are parodies/interpretations of the original songs. You may use it for private study, scholarship, research or language learning purposes only