» » »

Radiohead, Big Boots (Man O War) Tabs (ver.1)

Artists:  A B C D E F G H I J K L M N O P Q R S T U V W X Y Z # 

Big Boots (Man O War) Tabs (ver.1)

Radiohead Tabs
 Rating:
4/5 (4 votes)
Big Boots (Man O War) lessons Tabs too difficult? Try these video lessons and learn fast
1
                Rough Draft Number 1 - Corrections, additions are most welcome. Or, take
the Jonny route and put in your own kinks.

In addition to the chords which OJ posted, you can use this in place of
the F if you wish:

Dsus2/F [100230]

-

Riff - 3x - second time is variation of it.

e-----------------------------
B-----------------------------
G--7--5--4-----5--------------
D-----------7-----------------
A-----------------------------
E-----------------------------

 - OR - (use which ever one floats your boat)

e-----------------------------
B--3--1--0-----1--------------
G-----------2-----------------
D-----------------------------
A-----------------------------
E-----------------------------


After the '...you're my man-o-war' bit. Add some squeals, slides, pops etc.

e------0------------------------------------------------------------------
B------1----------------------3-----------------------3-------------------
G------2---s7--5--4---5-------2----s7--5--4---5-------2----s7--5--4---5---
D------2------------7---------0-------------7---------0-------------7-----
A--0--------------------------x-----------------------x-------------------
E--------------------------2-----------------------1----------------------

Just play about on these notes to get 'dirty' sounding notes. Hmm.

e------------------------------------------------
B------------------------------------------------
G---------5-----5--------5--4--------------------
D------7-----7-----7--7--------7-----------------
A------------------------------------------------
E------------------------------------------------

After the 'worms will eat...' part. [NB: this is very sketchy- I'm not
sure how to show the 13-14-12 bit. There's some major bending, so you can
mess around w/ that]

e--13b14b12--10----------------------------------------------------------
B----------------12b13b12--10----10--12--13--12--10--12p10-----10--------
G-----------------------------11----------------------------11-----------
D------------------------------------------------------------------------
A------------------------------------------------------------------------
E------------------------------------------------------------------------

As for the part under the lyrics which go:

'so unplug your phone 
stop all the chatter 
it all comes flooding back 
to poison the world '

...I'm still working on it.


    Guitar Archive at Planet Telex
Max Kolombos 
---------------------------------------
            
Submit corrections

comments powered by Disqus
↑ Back to top | Radiohead Tabs for Big Boots (Man O War). Lyrics for acoustic guitar and electric guitar. 1 Tablatures and chords are parodies/interpretations of the original songs. You may use it for private study, scholarship, research or language learning purposes only